  0
SECTION
  2
HEADER
  9
$ACADVER
  1
AC1032
  9
$ACADMAINTVER
 90
      197
  9
$DWGCODEPAGE
  3
ANSI_932
  9
$REQUIREDVERSIONS
160
                 0
  9
$INSBASE
 10
0.0
 20
0.0
 30
0.0
  9
$EXTMIN
 10
1.000000000000000E+20
 20
1.000000000000000E+20
 30
1.000000000000000E+20
  9
$EXTMAX
 10
-1.000000000000000E+20
 20
-1.000000000000000E+20
 30
-1.000000000000000E+20
  9
$LIMMIN
 10
0.0
 20
0.0
  9
$LIMMAX
 10
12.0
 20
9.0
  9
$ORTHOMODE
 70
     0
  9
$REGENMODE
 70
     1
  9
$FILLMODE
 70
     1
  9
$QTEXTMODE
 70
     0
  9
$MIRRTEXT
 70
     0
  9
$LTSCALE
 40
1.0
  9
$ATTMODE
 70
     1
  9
$TEXTSIZE
 40
0.2
  9
$TRACEWID
 40
0.05
  9
$TEXTSTYLE
  7
Standard
  9
$CLAYER
  8
0
  9
$CELTYPE
  6
ByLayer
  9
$CECOLOR
 62
   256
  9
$CELTSCALE
 40
1.0
  9
$DISPSILH
 70
     0
  9
$DIMSCALE
 40
1.0
  9
$DIMASZ
 40
0.18
  9
$DIMEXO
 40
0.0625
  9
$DIMDLI
 40
0.38
  9
$DIMRND
 40
0.0
  9
$DIMDLE
 40
0.0
  9
$DIMEXE
 40
0.18
  9
$DIMTP
 40
0.0
  9
$DIMTM
 40
0.0
  9
$DIMTXT
 40
0.18
  9
$DIMCEN
 40
0.09
  9
$DIMTSZ
 40
0.0
  9
$DIMTOL
 70
     0
  9
$DIMLIM
 70
     0
  9
$DIMTIH
 70
     1
  9
$DIMTOH
 70
     1
  9
$DIMSE1
 70
     0
  9
$DIMSE2
 70
     0
  9
$DIMTAD
 70
     0
  9
$DIMZIN
 70
     0
  9
$DIMBLK
  1

  9
$DIMASO
 70
     1
  9
$DIMSHO
 70
     1
  9
$DIMPOST
  1

  9
$DIMAPOST
  1

  9
$DIMALT
 70
     0
  9
$DIMALTD
 70
     2
  9
$DIMALTF
 40
25.4
  9
$DIMLFAC
 40
1.0
  9
$DIMTOFL
 70
     0
  9
$DIMTVP
 40
0.0
  9
$DIMTIX
 70
     0
  9
$DIMSOXD
 70
     0
  9
$DIMSAH
 70
     0
  9
$DIMBLK1
  1

  9
$DIMBLK2
  1

  9
$DIMSTYLE
  2
Standard
  9
$DIMCLRD
 70
     0
  9
$DIMCLRE
 70
     0
  9
$DIMCLRT
 70
     0
  9
$DIMTFAC
 40
1.0
  9
$DIMGAP
 40
0.09
  9
$DIMJUST
 70
     0
  9
$DIMSD1
 70
     0
  9
$DIMSD2
 70
     0
  9
$DIMTOLJ
 70
     1
  9
$DIMTZIN
 70
     0
  9
$DIMALTZ
 70
     0
  9
$DIMALTTZ
 70
     0
  9
$DIMUPT
 70
     0
  9
$DIMDEC
 70
     4
  9
$DIMTDEC
 70
     4
  9
$DIMALTU
 70
     2
  9
$DIMALTTD
 70
     2
  9
$DIMTXSTY
  7
Standard
  9
$DIMAUNIT
 70
     0
  9
$DIMADEC
 70
     0
  9
$DIMALTRND
 40
0.0
  9
$DIMAZIN
 70
     0
  9
$DIMDSEP
 70
    46
  9
$DIMATFIT
 70
     3
  9
$DIMFRAC
 70
     0
  9
$DIMLDRBLK
  1

  9
$DIMLUNIT
 70
     2
  9
$DIMLWD
 70
    -2
  9
$DIMLWE
 70
    -2
  9
$DIMTMOVE
 70
     0
  9
$DIMFXL
 40
1.0
  9
$DIMFXLON
 70
     0
  9
$DIMJOGANG
 40
0.7853981633974483
  9
$DIMTFILL
 70
     0
  9
$DIMTFILLCLR
 70
     0
  9
$DIMARCSYM
 70
     0
  9
$DIMLTYPE
  6

  9
$DIMLTEX1
  6

  9
$DIMLTEX2
  6

  9
$DIMTXTDIRECTION
 70
     0
  9
$LUNITS
 70
     2
  9
$LUPREC
 70
     4
  9
$SKETCHINC
 40
0.1
  9
$FILLETRAD
 40
0.0
  9
$AUNITS
 70
     0
  9
$AUPREC
 70
     0
  9
$MENU
  1
.
  9
$ELEVATION
 40
0.0
  9
$PELEVATION
 40
0.0
  9
$THICKNESS
 40
0.0
  9
$LIMCHECK
 70
     0
  9
$CHAMFERA
 40
0.0
  9
$CHAMFERB
 40
0.0
  9
$CHAMFERC
 40
0.0
  9
$CHAMFERD
 40
0.0
  9
$SKPOLY
 70
     0
  9
$TDCREATE
 40
2459677.447650463
  9
$TDUCREATE
 40
2459677.072650463
  9
$TDUPDATE
 40
2459677.447650463
  9
$TDUUPDATE
 40
2459677.072650463
  9
$TDINDWG
 40
0.0000000000
  9
$TDUSRTIMER
 40
0.0000000000
  9
$USRTIMER
 70
     1
  9
$ANGBASE
 50
0.0
  9
$ANGDIR
 70
     0
  9
$PDMODE
 70
     0
  9
$PDSIZE
 40
0.0
  9
$PLINEWID
 40
0.0
  9
$SPLFRAME
 70
     0
  9
$SPLINETYPE
 70
     6
  9
$SPLINESEGS
 70
     8
  9
$HANDSEED
  5
1D3
  9
$SURFTAB1
 70
     6
  9
$SURFTAB2
 70
     6
  9
$SURFTYPE
 70
     6
  9
$SURFU
 70
     6
  9
$SURFV
 70
     6
  9
$UCSBASE
  2

  9
$UCSNAME
  2

  9
$UCSORG
 10
0.0
 20
0.0
 30
0.0
  9
$UCSXDIR
 10
1.0
 20
0.0
 30
0.0
  9
$UCSYDIR
 10
0.0
 20
1.0
 30
0.0
  9
$UCSORTHOREF
  2

  9
$UCSORTHOVIEW
 70
     0
  9
$UCSORGTOP
 10
0.0
 20
0.0
 30
0.0
  9
$UCSORGBOTTOM
 10
0.0
 20
0.0
 30
0.0
  9
$UCSORGLEFT
 10
0.0
 20
0.0
 30
0.0
  9
$UCSORGRIGHT
 10
0.0
 20
0.0
 30
0.0
  9
$UCSORGFRONT
 10
0.0
 20
0.0
 30
0.0
  9
$UCSORGBACK
 10
0.0
 20
0.0
 30
0.0
  9
$PUCSBASE
  2

  9
$PUCSNAME
  2

  9
$PUCSORG
 10
0.0
 20
0.0
 30
0.0
  9
$PUCSXDIR
 10
1.0
 20
0.0
 30
0.0
  9
$PUCSYDIR
 10
0.0
 20
1.0
 30
0.0
  9
$PUCSORTHOREF
  2

  9
$PUCSORTHOVIEW
 70
     0
  9
$PUCSORGTOP
 10
0.0
 20
0.0
 30
0.0
  9
$PUCSORGBOTTOM
 10
0.0
 20
0.0
 30
0.0
  9
$PUCSORGLEFT
 10
0.0
 20
0.0
 30
0.0
  9
$PUCSORGRIGHT
 10
0.0
 20
0.0
 30
0.0
  9
$PUCSORGFRONT
 10
0.0
 20
0.0
 30
0.0
  9
$PUCSORGBACK
 10
0.0
 20
0.0
 30
0.0
  9
$USERI1
 70
     0
  9
$USERI2
 70
     0
  9
$USERI3
 70
     0
  9
$USERI4
 70
     0
  9
$USERI5
 70
     0
  9
$USERR1
 40
0.0
  9
$USERR2
 40
0.0
  9
$USERR3
 40
0.0
  9
$USERR4
 40
0.0
  9
$USERR5
 40
0.0
  9
$WORLDVIEW
 70
     1
  9
$SHADEDGE
 70
     3
  9
$SHADEDIF
 70
    70
  9
$TILEMODE
 70
     1
  9
$MAXACTVP
 70
    64
  9
$PINSBASE
 10
0.0
 20
0.0
 30
0.0
  9
$PLIMCHECK
 70
     0
  9
$PEXTMIN
 10
1.000000000000000E+20
 20
1.000000000000000E+20
 30
1.000000000000000E+20
  9
$PEXTMAX
 10
-1.000000000000000E+20
 20
-1.000000000000000E+20
 30
-1.000000000000000E+20
  9
$PLIMMIN
 10
0.0
 20
0.0
  9
$PLIMMAX
 10
12.0
 20
9.0
  9
$UNITMODE
 70
     0
  9
$VISRETAIN
 70
     1
  9
$PLINEGEN
 70
     0
  9
$PSLTSCALE
 70
     1
  9
$TREEDEPTH
 70
  3020
  9
$CMLSTYLE
  2
Standard
  9
$CMLJUST
 70
     0
  9
$CMLSCALE
 40
1.0
  9
$PROXYGRAPHICS
 70
     1
  9
$MEASUREMENT
 70
     0
  9
$CELWEIGHT
370
    -1
  9
$ENDCAPS
280
     0
  9
$JOINSTYLE
280
     0
  9
$LWDISPLAY
290
     1
  9
$INSUNITS
 70
     0
  9
$HYPERLINKBASE
  1

  9
$STYLESHEET
  1

  9
$XEDIT
290
     1
  9
$CEPSNTYPE
380
     0
  9
$PSTYLEMODE
290
     1
  9
$FINGERPRINTGUID
  2
{8F462BE7-FE5C-2F48-B7CE-19D108329629}
  9
$VERSIONGUID
  2
{6CF783DA-EB67-2041-AD90-38887E3433FA}
  9
$EXTNAMES
290
     1
  9
$PSVPSCALE
 40
0.0
  9
$OLESTARTUP
290
     0
  9
$SORTENTS
280
   127
  9
$INDEXCTL
280
     0
  9
$HIDETEXT
280
     1
  9
$XCLIPFRAME
280
     2
  9
$HALOGAP
280
     0
  9
$OBSCOLOR
 70
   257
  9
$OBSLTYPE
280
     0
  9
$INTERSECTIONDISPLAY
280
     0
  9
$INTERSECTIONCOLOR
 70
   257
  9
$DIMASSOC
280
     2
  9
$PROJECTNAME
  1

  9
$CAMERADISPLAY
290
     0
  9
$LENSLENGTH
 40
50.0
  9
$CAMERAHEIGHT
 40
0.0
  9
$STEPSPERSEC
 40
2.0
  9
$STEPSIZE
 40
6.0
  9
$3DDWFPREC
 40
2.0
  9
$PSOLWIDTH
 40
0.25
  9
$PSOLHEIGHT
 40
4.0
  9
$LOFTANG1
 40
1.570796326794896
  9
$LOFTANG2
 40
1.570796326794896
  9
$LOFTMAG1
 40
0.0
  9
$LOFTMAG2
 40
0.0
  9
$LOFTPARAM
 70
     7
  9
$LOFTNORMALS
280
     1
  9
$LATITUDE
 40
37.795
  9
$LONGITUDE
 40
-122.394
  9
$NORTHDIRECTION
 40
0.0
  9
$TIMEZONE
 70
 -8000
  9
$LIGHTGLYPHDISPLAY
280
     1
  9
$TILEMODELIGHTSYNCH
280
     1
  9
$CMATERIAL
347
11
  9
$SOLIDHIST
280
     0
  9
$SHOWHIST
280
     1
  9
$DWFFRAME
280
     2
  9
$DGNFRAME
280
     0
  9
$REALWORLDSCALE
290
     1
  9
$INTERFERECOLOR
 62
     1
  9
$INTERFEREOBJVS
345
33
  9
$INTERFEREVPVS
346
30
  9
$CSHADOW
280
     0
  9
$SHADOWPLANELOCATION
 40
0.0
  0
ENDSEC
  0
SECTION
  2
CLASSES
  0
CLASS
  1
ACDBDICTIONARYWDFLT
  2
AcDbDictionaryWithDefault
  3
ObjectDBX Classes
 90
        0
 91
        1
280
     0
281
     0
  0
CLASS
  1
MATERIAL
  2
AcDbMaterial
  3
ObjectDBX Classes
 90
     1153
 91
        3
280
     0
281
     0
  0
CLASS
  1
VISUALSTYLE
  2
AcDbVisualStyle
  3
ObjectDBX Classes
 90
     4095
 91
       24
280
     0
281
     0
  0
CLASS
  1
SCALE
  2
AcDbScale
  3
ObjectDBX Classes
 90
     1153
 91
       17
280
     0
281
     0
  0
CLASS
  1
TABLESTYLE
  2
AcDbTableStyle
  3
ObjectDBX Classes
 90
     4095
 91
        1
280
     0
281
     0
  0
CLASS
  1
MLEADERSTYLE
  2
AcDbMLeaderStyle
  3
ACDB_MLEADERSTYLE_CLASS
 90
     4095
 91
        1
280
     0
281
     0
  0
CLASS
  1
ACDBSECTIONVIEWSTYLE
  2
AcDbSectionViewStyle
  3
ObjectDBX Classes
 90
     1025
 91
        1
280
     0
281
     0
  0
CLASS
  1
ACDBDETAILVIEWSTYLE
  2
AcDbDetailViewStyle
  3
ObjectDBX Classes
 90
     1025
 91
        1
280
     0
281
     0
  0
CLASS
  1
DICTIONARYVAR
  2
AcDbDictionaryVar
  3
ObjectDBX Classes
 90
        0
 91
        5
280
     0
281
     0
  0
CLASS
  1
CELLSTYLEMAP
  2
AcDbCellStyleMap
  3
ObjectDBX Classes
 90
     1152
 91
        1
280
     0
281
     0
  0
ENDSEC
  0
SECTION
  2
TABLES
  0
TABLE
  2
VPORT
  5
8
330
0
100
AcDbSymbolTable
 70
     1
  0
VPORT
  5
57
330
8
100
AcDbSymbolTableRecord
100
AcDbViewportTableRecord
  2
*Active
 70
     0
 10
0.0
 20
0.0
 11
1.0
 21
1.0
 12
0.0
 22
0.0
 13
0.0
 23
0.0
 14
1.0
 24
1.0
 15
0.0
 25
0.0
 16
0.0
 26
0.0
 36
1.0
 17
150.0000000000004
 27
150.0
 37
0.0
 40
306.0
 41
1.001228346457
 42
50.0
 43
0.0
 44
0.0
 50
0.0
 51
0.0
 71
     0
 72
   100
 73
     1
 74
     1
 75
     0
 76
     0
 77
     0
 78
     0
281
     0
 65
     1
110
0.0
120
0.0
130
0.0
111
1.0
121
0.0
131
0.0
112
0.0
122
1.0
132
0.0
 79
     0
146
0.0
 60
     3
 61
     5
292
     1
282
     1
141
0.0
142
0.0
 63
   250
421
  3355443
  0
ENDTAB
  0
TABLE
  2
LTYPE
  5
5
330
0
100
AcDbSymbolTable
 70
     5
  0
LTYPE
  5
5B
330
5
100
AcDbSymbolTableRecord
100
AcDbLinetypeTableRecord
  2
ByBlock
 70
     0
  3

 72
    65
 73
     0
 40
0.0
  0
LTYPE
  5
5C
330
5
100
AcDbSymbolTableRecord
100
AcDbLinetypeTableRecord
  2
ByLayer
 70
     0
  3

 72
    65
 73
     0
 40
0.0
  0
LTYPE
  5
5D
330
5
100
AcDbSymbolTableRecord
100
AcDbLinetypeTableRecord
  2
Continuous
 70
     0
  3
Solid line
 72
    65
 73
     0
 40
0.0
  0
LTYPE
  5
A2
330
5
100
AcDbSymbolTableRecord
100
AcDbLinetypeTableRecord
  2
AI-Linetype-0
 70
     0
  3
Adobe Illustrator Linetype No. 0
 72
    65
 73
     2
 40
4.08214259147644
 49
2.721428394317626
 74
     0
 49
-1.360714197158813
 74
     0
  0
LTYPE
  5
A4
330
5
100
AcDbSymbolTableRecord
100
AcDbLinetypeTableRecord
  2
AI-Linetype-1
 70
     0
  3
Adobe Illustrator Linetype No. 1
 72
    65
 73
     2
 40
4.08214259147644
 49
2.721428394317626
 74
     0
 49
-1.360714197158813
 74
     0
  0
LTYPE
  5
A6
330
5
100
AcDbSymbolTableRecord
100
AcDbLinetypeTableRecord
  2
AI-Linetype-2
 70
     0
  3
Adobe Illustrator Linetype No. 2
 72
    65
 73
     2
 40
1.360714226961135
 49
0.9071428179740905
 74
     0
 49
-0.4535714089870453
 74
     0
  0
LTYPE
  5
A8
330
5
100
AcDbSymbolTableRecord
100
AcDbLinetypeTableRecord
  2
AI-Linetype-3
 70
     0
  3
Adobe Illustrator Linetype No. 3
 72
    65
 73
     2
 40
13.60714244842529
 49
9.071428298950195
 74
     0
 49
-4.535714149475097
 74
     0
  0
ENDTAB
  0
TABLE
  2
LAYER
  5
2
330
0
100
AcDbSymbolTable
 70
     7
  0
LAYER
  5
54
330
2
100
AcDbSymbolTableRecord
100
AcDbLayerTableRecord
  2
0
 70
     0
 62
     7
  6
Continuous
370
    -3
390
F
347
21
348
0
  0
LAYER
  5
78
330
2
100
AcDbSymbolTableRecord
100
AcDbLayerTableRecord
  2
sakuzu
 70
     0
 62
     7
  6
Continuous
370
     0
390
F
347
21
348
0
  0
LAYER
  5
9C
330
2
100
AcDbSymbolTableRecord
100
AcDbLayerTableRecord
  2
sugata
 70
     0
 62
     7
  6
Continuous
370
     0
390
F
347
21
348
0
  0
LAYER
  5
A0
330
2
100
AcDbSymbolTableRecord
100
AcDbLayerTableRecord
  2
kaiko
 70
     0
 62
     7
  6
Continuous
370
     0
390
F
347
21
348
0
  0
LAYER
  5
A9
330
2
100
AcDbSymbolTableRecord
100
AcDbLayerTableRecord
  2
moji
 70
     0
 62
     7
  6
Continuous
370
     0
390
F
347
21
348
0
  0
LAYER
  5
136
330
2
100
AcDbSymbolTableRecord
100
AcDbLayerTableRecord
  2
sunpo
 70
     0
 62
     7
  6
Continuous
370
     0
390
F
347
21
348
0
  0
LAYER
  5
1AC
330
2
100
AcDbSymbolTableRecord
100
AcDbLayerTableRecord
  2
waku
 70
     0
 62
     7
  6
Continuous
370
     0
390
F
347
21
348
0
  0
ENDTAB
  0
TABLE
  2
STYLE
  5
3
330
0
100
AcDbSymbolTable
 70
     2
  0
STYLE
  5
55
330
3
100
AcDbSymbolTableRecord
100
AcDbTextStyleTableRecord
  2
Standard
 70
     0
 40
0.0
 41
1.0
 50
0.0
 71
     0
 42
0.2
  3
txt
  4

  0
STYLE
  5
5A
330
3
100
AcDbSymbolTableRecord
100
AcDbTextStyleTableRecord
  2
Annotative
 70
     0
 40
0.0
 41
1.0
 50
0.0
 71
     0
 42
0.2
  3
txt
  4

1001
AcadAnnotative
1000
AnnotativeData
1002
{
1070
     1
1070
     1
1002
}
  0
ENDTAB
  0
TABLE
  2
VIEW
  5
6
330
0
100
AcDbSymbolTable
 70
     0
  0
ENDTAB
  0
TABLE
  2
UCS
  5
7
330
0
100
AcDbSymbolTable
 70
     0
  0
ENDTAB
  0
TABLE
  2
APPID
  5
9
330
0
100
AcDbSymbolTable
 70
     2
  0
APPID
  5
56
330
9
100
AcDbSymbolTableRecord
100
AcDbRegAppTableRecord
  2
ACAD
 70
     0
  0
APPID
  5
5E
330
9
100
AcDbSymbolTableRecord
100
AcDbRegAppTableRecord
  2
AcadAnnotative
 70
     0
  0
ENDTAB
  0
TABLE
  2
DIMSTYLE
  5
A
330
0
100
AcDbSymbolTable
 70
     2
100
AcDbDimStyleTable
 71
     0
  0
DIMSTYLE
105
58
330
A
100
AcDbSymbolTableRecord
100
AcDbDimStyleTableRecord
  2
Standard
 70
     0
340
55
  0
DIMSTYLE
105
59
330
A
100
AcDbSymbolTableRecord
100
AcDbDimStyleTableRecord
  2
Annotative
 70
     0
340
55
1001
AcadAnnotative
1000
AnnotativeData
1002
{
1070
     1
1070
     1
1002
}
  0
ENDTAB
  0
TABLE
  2
BLOCK_RECORD
  5
1
330
0
100
AcDbSymbolTable
 70
     1
  0
BLOCK_RECORD
  5
70
330
1
100
AcDbSymbolTableRecord
100
AcDbBlockTableRecord
  2
*Model_Space
340
73
 70
     0
280
     1
281
     0
  0
BLOCK_RECORD
  5
6C
330
1
100
AcDbSymbolTableRecord
100
AcDbBlockTableRecord
  2
*Paper_Space
340
6F
 70
     0
280
     1
281
     0
  0
BLOCK_RECORD
  5
74
330
1
100
AcDbSymbolTableRecord
100
AcDbBlockTableRecord
  2
*Paper_Space0
340
77
 70
     0
280
     1
281
     0
  0
ENDTAB
  0
ENDSEC
  0
SECTION
  2
BLOCKS
  0
BLOCK
  5
71
330
70
100
AcDbEntity
  8
0
100
AcDbBlockBegin
  2
*Model_Space
 70
     0
 10
0.0
 20
0.0
 30
0.0
  3
*Model_Space
  1

  0
ENDBLK
  5
72
330
70
100
AcDbEntity
  8
0
100
AcDbBlockEnd
  0
BLOCK
  5
6D
330
6C
100
AcDbEntity
 67
     1
  8
0
100
AcDbBlockBegin
  2
*Paper_Space
 70
     0
 10
0.0
 20
0.0
 30
0.0
  3
*Paper_Space
  1

  0
ENDBLK
  5
6E
330
6C
100
AcDbEntity
 67
     1
  8
0
100
AcDbBlockEnd
  0
BLOCK
  5
75
330
74
100
AcDbEntity
 67
     1
  8
0
100
AcDbBlockBegin
  2
*Paper_Space0
 70
     0
 10
0.0
 20
0.0
 30
0.0
  3
*Paper_Space0
  1

  0
ENDBLK
  5
76
330
74
100
AcDbEntity
 67
     1
  8
0
100
AcDbBlockEnd
  0
ENDSEC
  0
SECTION
  2
ENTITIES
  0
LWPOLYLINE
  5
79
330
70
100
AcDbEntity
  8
sakuzu
 62
     5
420
      255
370
    25
100
AcDbPolyline
 90
        5
 70
     0
 43
0.0
 10
164.0710884761029
 20
148.9081284700751
 10
129.7950033000415
 20
148.9081284700751
 10
129.7950033000415
 20
152.1516461929586
 10
164.0710884761029
 20
152.1516461929586
 10
164.0710884761029
 20
148.9081284700751
  0
LWPOLYLINE
  5
7A
330
70
100
AcDbEntity
  8
sakuzu
 62
     5
420
      255
370
    25
100
AcDbPolyline
 90
       10
 70
     0
 43
0.0
 10
159.6947707596209
 20
155.4323852110528
 10
158.6685103886248
 20
158.1905901763266
 10
158.608032822729
 20
160.3790728204176
 10
163.6696503315288
 20
160.3790728204176
 10
163.6696503315288
 20
157.6926356928852
 10
163.6696503315288
 20
150.1363490465073
 10
163.203739386874
 20
149.6639854226068
 10
162.2126731050739
 20
149.6639854226068
 10
161.597730593774
 20
150.3183707049847
 10
159.6947707596209
 20
155.4323852110528
  0
LWPOLYLINE
  5
7B
330
70
100
AcDbEntity
  8
sakuzu
 62
     5
420
      255
370
    25
100
AcDbPolyline
 90
        5
 70
     0
 43
0.0
 10
160.7695867872498
 20
152.5439244784602
 10
129.7950033000415
 20
152.5439244784602
 10
129.7950033000415
 20
186.4724959070317
 10
164.0807175857553
 20
186.4724959070317
 10
164.0807175857553
 20
152.5439244784602
  0
LINE
  5
7C
330
70
100
AcDbEntity
  8
sakuzu
 62
     5
420
      255
370
    25
100
AcDbLine
 10
164.0807175857553
 20
152.5439244784602
 30
0.0
 11
163.6696503315288
 21
152.5439244784602
 31
0.0
  0
LWPOLYLINE
  5
7D
330
70
100
AcDbEntity
  8
sakuzu
 62
     5
420
      255
370
    25
100
AcDbPolyline
 90
        6
 70
     0
 43
0.0
 10
215.4588722145236
 20
128.4010673356024
 10
181.8085203112859
 20
128.4010673356024
 10
181.1731579288098
 20
128.4010673356024
 10
181.1731579288098
 20
185.6462507260376
 10
215.4588722145236
 20
185.6462507260376
 10
215.4588722145236
 20
128.4010673356024
  0
LWPOLYLINE
  5
7E
330
70
100
AcDbEntity
  8
sakuzu
 62
     5
420
      255
370
    25
100
AcDbPolyline
 90
        9
 70
     1
 43
0.0
 10
183.5366972847332
 20
128.4010673356024
 10
182.6491298791024
 20
128.4010673356024
 10
182.6491298791024
 20
127.8480719641647
 10
182.205092778664
 20
127.8480719641647
 10
182.205092778664
 20
126.8296387641749
 10
183.9807343851717
 20
126.8296387641749
 10
183.9807343851717
 20
127.8480719641647
 10
183.5366972847332
 20
127.8480719641647
 10
183.5366972847332
 20
128.4010673356024
  0
LWPOLYLINE
  5
7F
330
70
100
AcDbEntity
  8
sakuzu
 62
     5
420
      255
370
    25
100
AcDbPolyline
 90
        9
 70
     1
 43
0.0
 10
214.5460060919377
 20
128.4010673356024
 10
213.658185288683
 20
128.4010673356024
 10
213.658185288683
 20
127.8480719641647
 10
213.2141241283389
 20
127.8480719641647
 10
213.2141241283389
 20
126.8296387641749
 10
214.9897897947521
 20
126.8296387641749
 10
214.9897897947521
 20
127.8480719641647
 10
214.5460060919377
 20
127.8480719641647
 10
214.5460060919377
 20
128.4010673356024
  0
LWPOLYLINE
  5
80
330
70
100
AcDbEntity
  8
sakuzu
 62
     5
420
      255
370
    25
100
AcDbPolyline
 90
        5
 70
     0
 43
0.0
 10
215.1756428731878
 20
185.667282728702
 10
210.2207057634459
 20
185.667282728702
 10
210.2207057634459
 20
186.4722143541176
 10
215.1756428731878
 20
186.4722143541176
 10
215.1756428731878
 20
185.667282728702
  0
LWPOLYLINE
  5
81
330
70
100
AcDbEntity
  8
sakuzu
 62
     5
420
      255
370
    25
100
AcDbPolyline
 90
        9
 70
     1
 43
0.0
 10
237.3306193349454
 20
128.4010673356024
 10
236.4428032138822
 20
128.4010673356024
 10
236.4428032138822
 20
127.8480719641647
 10
235.9990148288762
 20
127.8480719641647
 10
235.9990148288762
 20
126.8296387641749
 10
237.7746564353838
 20
126.8296387641749
 10
237.7746564353838
 20
127.8480719641647
 10
237.3306193349454
 20
127.8480719641647
 10
237.3306193349454
 20
128.4010673356024
  0
LWPOLYLINE
  5
82
330
70
100
AcDbEntity
  8
sakuzu
 62
     5
420
      255
370
    25
100
AcDbPolyline
 90
        5
 70
     1
 43
0.0
 10
268.3899053863079
 20
128.4010673356024
 10
260.5411055303903
 20
128.4010673356024
 10
262.1124844829556
 20
126.82992031709
 10
267.6792079192091
 20
126.82992031709
 10
268.3899053863079
 20
128.4010673356024
  0
LWPOLYLINE
  5
83
330
70
100
AcDbEntity
  8
sakuzu
 62
     5
420
      255
370
    25
100
AcDbPolyline
 90
        5
 70
     0
 43
0.0
 10
269.2676872412576
 20
128.4010673356024
 10
235.3391158126851
 20
128.4010673356024
 10
235.3391158126851
 20
185.6480558621169
 10
269.2676872412576
 20
185.6480558621169
 10
269.2676872412576
 20
128.4010673356024
  0
LWPOLYLINE
  5
84
330
70
100
AcDbEntity
  8
sakuzu
 62
     5
420
      255
370
    25
100
AcDbPolyline
 90
        5
 70
     0
 43
0.0
 10
235.1216396387244
 20
128.4010673356024
 10
231.6962586698283
 20
128.4010673356024
 10
231.6962586698283
 20
185.6524448901427
 10
235.1216396387244
 20
185.6524448901427
 10
235.1216396387244
 20
128.4010673356024
  0
LWPOLYLINE
  5
85
330
70
100
AcDbEntity
  8
sakuzu
 62
     5
420
      255
370
    25
100
AcDbPolyline
 90
        5
 70
     0
 43
0.0
 10
229.7319893426557
 20
135.4364972691801
 10
228.4105443841145
 20
135.4364972691801
 10
228.4105443841145
 20
178.2140984590478
 10
229.7319893426557
 20
178.2140984590478
 10
229.7319893426557
 20
135.4364972691801
  0
LINE
  5
86
330
70
100
AcDbEntity
  8
sakuzu
 62
     5
420
      255
370
    25
100
AcDbLine
 10
229.7319893426557
 20
174.9108070525535
 30
0.0
 11
231.6939124777146
 21
174.9108070525535
 31
0.0
  0
LINE
  5
87
330
70
100
AcDbEntity
  8
sakuzu
 62
     5
420
      255
370
    25
100
AcDbLine
 10
229.7319893426557
 20
174.0851249773868
 30
0.0
 11
231.6962586698283
 21
174.0851249773868
 31
0.0
  0
LINE
  5
88
330
70
100
AcDbEntity
  8
sakuzu
 62
     5
420
      255
370
    25
100
AcDbLine
 10
229.7319893426557
 20
141.1346496056212
 30
0.0
 11
231.6962586698283
 21
141.1346496056212
 31
0.0
  0
LINE
  5
89
330
70
100
AcDbEntity
  8
sakuzu
 62
     5
420
      255
370
    25
100
AcDbLine
 10
229.7319893426557
 20
140.3089393751634
 30
0.0
 11
231.6962586698283
 21
140.3089393751634
 31
0.0
  0
LWPOLYLINE
  5
8A
330
70
100
AcDbEntity
  8
sakuzu
 62
     5
420
      255
370
    25
100
AcDbPolyline
 90
        5
 70
     0
 43
0.0
 10
243.2250703629234
 20
185.667282728702
 10
232.509842188656
 20
185.667282728702
 10
232.509842188656
 20
186.4724959070317
 10
243.2250703629234
 20
186.4724959070317
 10
243.2250703629234
 20
185.6672827287029
  0
SPLINE
  5
8B
330
70
100
AcDbEntity
  8
sakuzu
 62
     5
420
      255
370
    25
100
AcDbSpline
210
0.0
220
0.0
230
1.0
 70
     9
 71
     3
 72
    29
 73
    25
 74
     0
 42
0.0000000001
 43
0.0000000001
 40
0.0
 40
0.0
 40
0.0
 40
0.0
 40
1.0
 40
1.0
 40
1.0
 40
2.0
 40
2.0
 40
2.0
 40
3.0
 40
3.0
 40
3.0
 40
4.0
 40
4.0
 40
4.0
 40
5.0
 40
5.0
 40
5.0
 40
6.0
 40
6.0
 40
6.0
 40
7.0
 40
7.0
 40
7.0
 40
8.0
 40
8.0
 40
8.0
 40
8.0
 10
131.5502065402934
 20
146.8615088535844
 30
0.0
 10
131.325238536232
 20
146.7512136823606
 30
0.0
 10
131.1826496076964
 20
146.5225028527129
 30
0.0
 10
131.1826496076964
 20
146.2719522038478
 30
0.0
 10
131.1826496076964
 20
145.9093225043652
 30
0.0
 10
131.4766190621722
 20
145.6153530498886
 30
0.0
 10
131.8392487616556
 20
145.6153530498886
 30
0.0
 10
132.2018784611391
 20
145.6153530498886
 30
0.0
 10
132.4958479156139
 20
145.9093225043652
 30
0.0
 10
132.4958479156139
 20
146.2719522038478
 30
0.0
 10
132.4958479156139
 20
146.5225028527129
 30
0.0
 10
132.3532589870783
 20
146.7512136823606
 30
0.0
 10
132.128290983017
 20
146.8615088535844
 30
0.0
 10
132.128290983017
 20
146.8615088535844
 30
0.0
 10
132.128290983017
 20
148.9081284700751
 30
0.0
 10
132.128290983017
 20
148.9081284700751
 30
0.0
 10
132.128290983017
 20
148.9081284700751
 30
0.0
 10
131.5502065402934
 20
148.9081284700751
 30
0.0
 10
131.5502065402934
 20
148.9081284700751
 30
0.0
 10
131.5502065402934
 20
148.9081284700751
 30
0.0
 10
131.5502065402934
 20
146.8615088535844
 30
0.0
 10
131.5502065402934
 20
146.8615088535844
 30
0.0
 10
131.5502065402934
 20
146.8615088535844
 30
0.0
 10
131.5502065402934
 20
146.8615088535844
 30
0.0
 10
131.5502065402934
 20
146.8615088535844
 30
0.0
  0
SPLINE
  5
8C
330
70
100
AcDbEntity
  8
sakuzu
 62
     5
420
      255
370
    25
100
AcDbSpline
210
0.0
220
0.0
230
1.0
 70
     9
 71
     3
 72
   149
 73
   145
 74
     0
 42
0.0000000001
 43
0.0000000001
 40
0.0
 40
0.0
 40
0.0
 40
0.0
 40
1.0
 40
1.0
 40
1.0
 40
2.0
 40
2.0
 40
2.0
 40
3.0
 40
3.0
 40
3.0
 40
4.0
 40
4.0
 40
4.0
 40
5.0
 40
5.0
 40
5.0
 40
6.0
 40
6.0
 40
6.0
 40
7.0
 40
7.0
 40
7.0
 40
8.0
 40
8.0
 40
8.0
 40
9.0
 40
9.0
 40
9.0
 40
10.0
 40
10.0
 40
10.0
 40
11.0
 40
11.0
 40
11.0
 40
12.0
 40
12.0
 40
12.0
 40
13.0
 40
13.0
 40
13.0
 40
14.0
 40
14.0
 40
14.0
 40
15.0
 40
15.0
 40
15.0
 40
16.0
 40
16.0
 40
16.0
 40
17.0
 40
17.0
 40
17.0
 40
18.0
 40
18.0
 40
18.0
 40
19.0
 40
19.0
 40
19.0
 40
20.0
 40
20.0
 40
20.0
 40
21.0
 40
21.0
 40
21.0
 40
22.0
 40
22.0
 40
22.0
 40
23.0
 40
23.0
 40
23.0
 40
24.0
 40
24.0
 40
24.0
 40
25.0
 40
25.0
 40
25.0
 40
26.0
 40
26.0
 40
26.0
 40
27.0
 40
27.0
 40
27.0
 40
28.0
 40
28.0
 40
28.0
 40
29.0
 40
29.0
 40
29.0
 40
30.0
 40
30.0
 40
30.0
 40
31.0
 40
31.0
 40
31.0
 40
32.0
 40
32.0
 40
32.0
 40
33.0
 40
33.0
 40
33.0
 40
34.0
 40
34.0
 40
34.0
 40
35.0
 40
35.0
 40
35.0
 40
36.0
 40
36.0
 40
36.0
 40
37.0
 40
37.0
 40
37.0
 40
38.0
 40
38.0
 40
38.0
 40
39.0
 40
39.0
 40
39.0
 40
40.0
 40
40.0
 40
40.0
 40
41.0
 40
41.0
 40
41.0
 40
42.0
 40
42.0
 40
42.0
 40
43.0
 40
43.0
 40
43.0
 40
44.0
 40
44.0
 40
44.0
 40
45.0
 40
45.0
 40
45.0
 40
46.0
 40
46.0
 40
46.0
 40
47.0
 40
47.0
 40
47.0
 40
48.0
 40
48.0
 40
48.0
 40
48.0
 10
154.8540291364479
 20
194.2641383495211
 30
0.0
 10
154.8546600709724
 20
194.2548082815265
 30
0.0
 10
154.8550731432351
 20
194.2447425201062
 30
0.0
 10
154.855268353238
 20
194.2339410652612
 30
0.0
 10
154.8554635632408
 20
194.2231396104162
 30
0.0
 10
154.8552681382061
 20
194.2116737380229
 30
0.0
 10
154.8546820781339
 20
194.1995434480832
 30
0.0
 10
154.8540960180616
 20
194.1874131581426
 30
0.0
 10
154.8531193253438
 20
194.1754173970394
 30
0.0
 10
154.8517519999805
 20
194.1635561647736
 30
0.0
 10
154.8503846746152
 20
194.1516949325069
 30
0.0
 10
154.8486412233524
 20
194.1399756996025
 30
0.0
 10
154.8465216461882
 20
194.1283984660586
 30
0.0
 10
154.8444020690276
 20
194.1168212325156
 30
0.0
 10
154.8419208986342
 20
194.1053934193478
 30
0.0
 10
154.8390781350099
 20
194.0941150265553
 30
0.0
 10
154.8362353713874
 20
194.0828366337628
 30
0.0
 10
154.8330455546547
 20
194.0717150576483
 30
0.0
 10
154.8295086848102
 20
194.0607502982111
 30
0.0
 10
154.8259718149656
 20
194.049785538773
 30
0.0
 10
154.8221024326594
 20
194.0389849681296
 30
0.0
 10
154.8179005378933
 20
194.0283485862783
 30
0.0
 10
154.8136986431273
 20
194.017712204427
 30
0.0
 10
154.8091787711691
 20
194.0072473614609
 30
0.0
 10
154.8043409220208
 20
193.9969540573802
 30
0.0
 10
154.7995030728707
 20
193.9866607532986
 30
0.0
 10
154.7943617718483
 20
193.97654631965
 30
0.0
 10
154.7889170189537
 20
193.9666107564335
 30
0.0
 10
154.7834722660591
 20
193.9566751932179
 30
0.0
 10
154.7777385736062
 20
193.9469258176195
 30
0.0
 10
154.771715941597
 20
193.9373626296401
 30
0.0
 10
154.7656933095859
 20
193.9277994416598
 30
0.0
 10
154.7593962357296
 20
193.9184297484498
 30
0.0
 10
154.752824720028
 20
193.9092535500094
 30
0.0
 10
154.7462532043264
 20
193.9000773515681
 30
0.0
 10
154.7394217295186
 20
193.8911019490633
 30
0.0
 10
154.7323302955992
 20
193.882327342495
 30
0.0
 10
154.7252388616816
 20
193.8735527359267
 30
0.0
 10
154.7179019369778
 20
193.8649862239881
 30
0.0
 10
154.7103195214895
 20
193.8566278066773
 30
0.0
 10
154.7027371059976
 20
193.8482693893675
 30
0.0
 10
154.6949236547425
 20
193.8401263657342
 30
0.0
 10
154.6868791677189
 20
193.8321987357785
 30
0.0
 10
154.678834680697
 20
193.8242711058219
 30
0.0
 10
154.6705736012845
 20
193.8165661712091
 30
0.0
 10
154.6620959294832
 20
193.8090839319384
 30
0.0
 10
154.6536182576819
 20
193.8016016926667
 30
0.0
 10
154.6449384260922
 20
193.7943494542814
 30
0.0
 10
154.6360564347105
 20
193.7873272167826
 30
0.0
 10
154.6271744433306
 20
193.7803049792846
 30
0.0
 10
154.6181047185528
 20
193.773520054553
 30
0.0
 10
154.6088472603751
 20
193.7669724425886
 30
0.0
 10
154.5995898021992
 20
193.7604248306243
 30
0.0
 10
154.5901590197918
 20
193.7541218448123
 30
0.0
 10
154.5805549131601
 20
193.7480634851517
 30
0.0
 10
154.5709508065265
 20
193.7420051254912
 30
0.0
 10
154.561187820278
 20
193.7361987304257
 30
0.0
 10
154.5512659544129
 20
193.7306442999543
 30
0.0
 10
154.5413440885477
 20
193.7250898694829
 30
0.0
 10
154.5312776119917
 20
193.7197946723117
 30
0.0
 10
154.521066524745
 20
193.7147587084409
 30
0.0
 10
154.5108554374983
 20
193.7097227445701
 30
0.0
 10
154.5005142878999
 20
193.7049534170965
 30
0.0
 10
154.4900430759535
 20
193.7004507260208
 30
0.0
 10
154.4795718640052
 20
193.6959480349451
 30
0.0
 10
154.4689850118939
 20
193.6917193347226
 30
0.0
 10
154.4582825196157
 20
193.6877646253551
 30
0.0
 10
154.4475800273394
 20
193.6838099159868
 30
0.0
 10
154.4367762277816
 20
193.6801365232459
 30
0.0
 10
154.425871120944
 20
193.6767444471315
 30
0.0
 10
154.4149660141047
 20
193.6733523710181
 30
0.0
 10
154.4039740033222
 20
193.6702489761028
 30
0.0
 10
154.3928950885965
 20
193.6674342623837
 30
0.0
 10
154.381816173869
 20
193.6646195486655
 30
0.0
 10
154.3706647513209
 20
193.662100886374
 30
0.0
 10
154.3594408209519
 20
193.6598782755081
 30
0.0
 10
154.3482168905812
 20
193.6576556646423
 30
0.0
 10
154.3369348507058
 20
193.6557364849568
 30
0.0
 10
154.3255947013313
 20
193.6541207364516
 30
0.0
 10
154.3142545519549
 20
193.6525049879465
 30
0.0
 10
154.3028706943587
 20
193.6512000598577
 30
0.0
 10
154.2914431285426
 20
193.6502059521863
 30
0.0
 10
154.2800155627265
 20
193.6492118445148
 30
0.0
 10
154.268558694921
 20
193.6485359560993
 30
0.0
 10
154.2570725251225
 20
193.6481782869414
 30
0.0
 10
154.2455863553241
 20
193.6478206177835
 30
0.0
 10
154.2340852968864
 20
193.6477885760341
 30
0.0
 10
154.2225693498094
 20
193.6480821616933
 30
0.0
 10
154.2110534027324
 20
193.6483757473524
 30
0.0
 10
154.199536989905
 20
193.6490023770639
 30
0.0
 10
154.1880201113254
 20
193.6499620508293
 30
0.0
 10
154.1765032327457
 20
193.6509217245939
 30
0.0
 10
154.1650003233408
 20
193.6522218660338
 30
0.0
 10
154.1535113831087
 20
193.6538624751483
 30
0.0
 10
154.1420224428766
 20
193.6555030842637
 30
0.0
 10
154.1305619211416
 20
193.6574915893188
 30
0.0
 10
154.1191298179055
 20
193.6598279903173
 30
0.0
 10
154.1076977146695
 20
193.6621643913158
 30
0.0
 10
154.0963084955947
 20
193.6648561179636
 30
0.0
 10
154.0849621606776
 20
193.6679031702615
 30
0.0
 10
154.0736158257623
 20
193.6709502225594
 30
0.0
 10
154.0623268581639
 20
193.6743600276468
 30
0.0
 10
154.0510952578824
 20
193.6781325855236
 30
0.0
 10
154.039863657601
 20
193.6819051434004
 30
0.0
 10
154.0287039253198
 20
193.6860478740373
 30
0.0
 10
154.0176160610408
 20
193.6905607774333
 30
0.0
 10
154.0065281967618
 20
193.6950736808294
 30
0.0
 10
153.9955267173154
 20
193.6999641649699
 30
0.0
 10
153.9846116227036
 20
193.7052322298541
 30
0.0
 10
153.9736965280899
 20
193.7105002947382
 30
0.0
 10
153.9628823483763
 20
193.7161533318485
 30
0.0
 10
153.9521690835572
 20
193.7221913411822
 30
0.0
 10
153.94145581874
 20
193.7282293505168
 30
0.0
 10
153.9308580077213
 20
193.7346597034029
 30
0.0
 10
153.9203756504994
 20
193.7414823998415
 30
0.0
 10
153.9098932932811
 20
193.7483050962801
 30
0.0
 10
153.8995409315757
 20
193.7555274849401
 30
0.0
 10
153.8893185653851
 20
193.7631495658215
 30
0.0
 10
153.8790961991963
 20
193.7707716467021
 30
0.0
 10
153.8690183485523
 20
193.7788007355302
 30
0.0
 10
153.8590850134587
 20
193.7872368323051
 30
0.0
 10
153.8491516783615
 20
193.795672929079
 30
0.0
 10
153.839376700449
 20
193.8045229696354
 30
0.0
 10
153.8297600797159
 20
193.8137869539723
 30
0.0
 10
153.8201434589828
 20
193.8230509383093
 30
0.0
 10
153.8118866039258
 20
193.8314467295249
 30
0.0
 10
153.8049895145432
 20
193.8389743276184
 30
0.0
 10
153.7980924251606
 20
193.8465019257119
 30
0.0
 10
153.7923634389372
 20
193.8528918227985
 30
0.0
 10
153.7878025558766
 20
193.8581440188773
 30
0.0
 10
153.7832416728142
 20
193.8633962149561
 30
0.0
 10
153.7788012808978
 20
193.8687949281639
 30
0.0
 10
153.7744813801273
 20
193.8743401585006
 30
0.0
 10
153.7701614793568
 20
193.8798853888365
 30
0.0
 10
153.7660905774846
 20
193.8846481993059
 30
0.0
 10
153.7622686745126
 20
193.8886285899079
 30
0.0
 10
153.7584467715387
 20
193.8926089805099
 30
0.0
 10
153.6266751116582
 20
194.2543772049657
 30
0.0
 10
153.3669536948691
 20
194.9739332632762
 30
0.0
 10
153.7345201627304
 20
195.1067406284001
 30
0.0
 10
154.1020866305935
 20
195.2395479935248
 30
0.0
 10
154.4696530984565
 20
195.3723553586478
 30
0.0
 10
154.5977784444531
 20
195.0029496889392
 30
0.0
 10
154.7259037904514
 20
194.6335440192297
 30
0.0
 10
154.8540291364479
 20
194.2641383495211
 30
0.0
  0
LINE
  5
8D
330
70
100
AcDbEntity
  8
sakuzu
 62
     5
420
      255
370
    25
100
AcDbLine
 10
153.7058281984627
 20
195.0964335030721
 30
0.0
 11
153.5070236859919
 21
195.6481082824766
 31
0.0
  0
LINE
  5
8E
330
70
100
AcDbEntity
  8
sakuzu
 62
     5
420
      255
370
    25
100
AcDbLine
 10
154.1302129055148
 20
195.2495735729026
 30
0.0
 11
153.9312957718775
 21
195.801135745075
 31
0.0
  0
SPLINE
  5
8F
330
70
100
AcDbEntity
  8
sakuzu
 62
     5
420
      255
370
    25
100
AcDbSpline
210
0.0
220
0.0
230
1.0
 70
     8
 71
     3
 72
   242
 73
   238
 74
     0
 42
0.0000000001
 43
0.0000000001
 40
0.0
 40
0.0
 40
0.0
 40
0.0
 40
1.0
 40
1.0
 40
1.0
 40
2.0
 40
2.0
 40
2.0
 40
3.0
 40
3.0
 40
3.0
 40
4.0
 40
4.0
 40
4.0
 40
5.0
 40
5.0
 40
5.0
 40
6.0
 40
6.0
 40
6.0
 40
7.0
 40
7.0
 40
7.0
 40
8.0
 40
8.0
 40
8.0
 40
9.0
 40
9.0
 40
9.0
 40
10.0
 40
10.0
 40
10.0
 40
11.0
 40
11.0
 40
11.0
 40
12.0
 40
12.0
 40
12.0
 40
13.0
 40
13.0
 40
13.0
 40
14.0
 40
14.0
 40
14.0
 40
15.0
 40
15.0
 40
15.0
 40
16.0
 40
16.0
 40
16.0
 40
17.0
 40
17.0
 40
17.0
 40
18.0
 40
18.0
 40
18.0
 40
19.0
 40
19.0
 40
19.0
 40
20.0
 40
20.0
 40
20.0
 40
21.0
 40
21.0
 40
21.0
 40
22.0
 40
22.0
 40
22.0
 40
23.0
 40
23.0
 40
23.0
 40
24.0
 40
24.0
 40
24.0
 40
25.0
 40
25.0
 40
25.0
 40
26.0
 40
26.0
 40
26.0
 40
27.0
 40
27.0
 40
27.0
 40
28.0
 40
28.0
 40
28.0
 40
29.0
 40
29.0
 40
29.0
 40
30.0
 40
30.0
 40
30.0
 40
31.0
 40
31.0
 40
31.0
 40
32.0
 40
32.0
 40
32.0
 40
33.0
 40
33.0
 40
33.0
 40
34.0
 40
34.0
 40
34.0
 40
35.0
 40
35.0
 40
35.0
 40
36.0
 40
36.0
 40
36.0
 40
37.0
 40
37.0
 40
37.0
 40
38.0
 40
38.0
 40
38.0
 40
39.0
 40
39.0
 40
39.0
 40
40.0
 40
40.0
 40
40.0
 40
41.0
 40
41.0
 40
41.0
 40
42.0
 40
42.0
 40
42.0
 40
43.0
 40
43.0
 40
43.0
 40
44.0
 40
44.0
 40
44.0
 40
45.0
 40
45.0
 40
45.0
 40
46.0
 40
46.0
 40
46.0
 40
47.0
 40
47.0
 40
47.0
 40
48.0
 40
48.0
 40
48.0
 40
49.0
 40
49.0
 40
49.0
 40
50.0
 40
50.0
 40
50.0
 40
51.0
 40
51.0
 40
51.0
 40
52.0
 40
52.0
 40
52.0
 40
53.0
 40
53.0
 40
53.0
 40
54.0
 40
54.0
 40
54.0
 40
55.0
 40
55.0
 40
55.0
 40
56.0
 40
56.0
 40
56.0
 40
57.0
 40
57.0
 40
57.0
 40
58.0
 40
58.0
 40
58.0
 40
59.0
 40
59.0
 40
59.0
 40
60.0
 40
60.0
 40
60.0
 40
61.0
 40
61.0
 40
61.0
 40
62.0
 40
62.0
 40
62.0
 40
63.0
 40
63.0
 40
63.0
 40
64.0
 40
64.0
 40
64.0
 40
65.0
 40
65.0
 40
65.0
 40
66.0
 40
66.0
 40
66.0
 40
67.0
 40
67.0
 40
67.0
 40
68.0
 40
68.0
 40
68.0
 40
69.0
 40
69.0
 40
69.0
 40
70.0
 40
70.0
 40
70.0
 40
71.0
 40
71.0
 40
71.0
 40
72.0
 40
72.0
 40
72.0
 40
73.0
 40
73.0
 40
73.0
 40
74.0
 40
74.0
 40
74.0
 40
75.0
 40
75.0
 40
75.0
 40
76.0
 40
76.0
 40
76.0
 40
77.0
 40
77.0
 40
77.0
 40
78.0
 40
78.0
 40
78.0
 40
79.0
 40
79.0
 40
79.0
 40
79.0
 10
155.1942858328402
 20
190.4766569819812
 30
0.0
 10
155.1959412663564
 20
190.4874158653001
 30
0.0
 10
155.1975090519372
 20
190.4974378127836
 30
0.0
 10
155.1989891895828
 20
190.5067228244315
 30
0.0
 10
155.2004693272283
 20
190.5160078360795
 30
0.0
 10
155.2018820486228
 20
190.5245654899618
 30
0.0
 10
155.2032273537697
 20
190.5323957860773
 30
0.0
 10
155.2045726589167
 20
190.5402260821929
 30
0.0
 10
155.2059312304136
 20
190.547956126893
 30
0.0
 10
155.2073030682604
 20
190.5555859201795
 30
0.0
 10
155.2086749061072
 20
190.5632157134659
 30
0.0
 10
155.2101148502897
 20
190.5707812788287
 30
0.0
 10
155.2116229008061
 20
190.5782826162685
 30
0.0
 10
155.2131309513242
 20
190.5857839537075
 30
0.0
 10
155.2146631639789
 20
190.5931743457786
 30
0.0
 10
155.2162195387718
 20
190.6004537924809
 30
0.0
 10
155.2177759135647
 20
190.6077332391842
 30
0.0
 10
155.2194292167896
 20
190.614935769503
 30
0.0
 10
155.2211794484465
 20
190.6220613834384
 30
0.0
 10
155.2229296801033
 20
190.6291869973729
 30
0.0
 10
155.2244169209043
 20
190.6350621917345
 30
0.0
 10
155.2256411708531
 20
190.6396869665232
 30
0.0
 10
155.2268654208019
 20
190.6443117413118
 30
0.0
 10
155.2281250472024
 20
190.6488895103366
 30
0.0
 10
155.2294200500582
 20
190.6534202735993
 30
0.0
 10
155.2307150529123
 20
190.6579510368619
 30
0.0
 10
155.2320483531366
 20
190.6624331280773
 30
0.0
 10
155.2334199507277
 20
190.666866547248
 30
0.0
 10
155.2347915483187
 20
190.6712999664169
 30
0.0
 10
155.2362043660396
 20
190.675683047205
 30
0.0
 10
155.2376584038884
 20
190.6800157896105
 30
0.0
 10
155.239112441739
 20
190.6843485320159
 30
0.0
 10
155.2407992719472
 20
190.6891484710813
 30
0.0
 10
155.2427188945148
 20
190.6944156068057
 30
0.0
 10
155.2446385170824
 20
190.69968274253
 30
0.0
 10
155.2466556434774
 20
190.7048674584903
 30
0.0
 10
155.2487702736998
 20
190.7099697546873
 30
0.0
 10
155.2508849039204
 20
190.7150720508834
 30
0.0
 10
155.2528365545895
 20
190.7196002495439
 30
0.0
 10
155.2546252257088
 20
190.7235543506694
 30
0.0
 10
155.2564138968264
 20
190.727508451795
 30
0.0
 10
155.2582569680562
 20
190.7314047037671
 30
0.0
 10
155.2601544393947
 20
190.7352431065847
 30
0.0
 10
155.2620519107331
 20
190.7390815094022
 30
0.0
 10
155.264006717749
 20
190.7428603873322
 30
0.0
 10
155.2660188604459
 20
190.7465797403756
 30
0.0
 10
155.268031003141
 20
190.7502990934181
 30
0.0
 10
155.2701034187557
 20
190.7539572415235
 30
0.0
 10
155.2722361072919
 20
190.7575541846927
 30
0.0
 10
155.2743687958264
 20
190.761151127861
 30
0.0
 10
155.2765646952048
 20
190.7646851808131
 30
0.0
 10
155.2788238054327
 20
190.7681563435453
 30
0.0
 10
155.2810829156569
 20
190.7716275062794
 30
0.0
 10
155.2834081743003
 20
190.7750340877837
 30
0.0
 10
155.2857995813574
 20
190.7783760880602
 30
0.0
 10
155.2881909884163
 20
190.7817180883366
 30
0.0
 10
155.2906514783662
 20
190.7849938096033
 30
0.0
 10
155.2931810512091
 20
190.7882032518582
 30
0.0
 10
155.2957106240519
 20
190.7914126941132
 30
0.0
 10
155.2983122137157
 20
190.7945541560329
 30
0.0
 10
155.3009858202022
 20
190.7976276376175
 30
0.0
 10
155.3036594266868
 20
190.8007011192012
 30
0.0
 10
155.3064079631531
 20
190.8037049041177
 30
0.0
 10
155.3092314296009
 20
190.8066389923651
 30
0.0
 10
155.3120548960487
 20
190.8095730806126
 30
0.0
 10
155.3149562586441
 20
190.8124357934985
 30
0.0
 10
155.317935517387
 20
190.8152271310246
 30
0.0
 10
155.3209147761299
 20
190.8180184685497
 30
0.0
 10
155.3239747878433
 20
190.8207366794004
 30
0.0
 10
155.3271155525253
 20
190.8233817635773
 30
0.0
 10
155.3302563172074
 20
190.8260268477543
 30
0.0
 10
155.3334807331921
 20
190.8285970827037
 30
0.0
 10
155.3367888004795
 20
190.8310924684247
 30
0.0
 10
155.3400968677688
 20
190.8335878541466
 30
0.0
 10
155.3434914892768
 20
190.8360067074154
 30
0.0
 10
155.3469726650037
 20
190.8383490282322
 30
0.0
 10
155.3504538407305
 20
190.840691349048
 30
0.0
 10
155.3540244525393
 20
190.8429554347867
 30
0.0
 10
155.3576845004299
 20
190.8451412854447
 30
0.0
 10
155.3613445483206
 20
190.8473271361044
 30
0.0
 10
155.3650969109567
 20
190.8494330600233
 30
0.0
 10
155.3689415883364
 20
190.851459057204
 30
0.0
 10
155.3727862657142
 20
190.8534850543837
 30
0.0
 10
155.3767261343473
 20
190.8554294418864
 30
0.0
 10
155.3807611942338
 20
190.8572922197145
 30
0.0
 10
155.3847962541185
 20
190.8591549975417
 30
0.0
 10
155.3889293824086
 20
190.8609344915767
 30
0.0
 10
155.3931605791022
 20
190.8626307018185
 30
0.0
 10
155.3973917757939
 20
190.8643269120612
 30
0.0
 10
155.4017239209261
 20
190.8659381721718
 30
0.0
 10
155.4061570144968
 20
190.8674644821485
 30
0.0
 10
155.4105901080656
 20
190.8689907921262
 30
0.0
 10
155.4151269971571
 20
190.8704305386018
 30
0.0
 10
155.4197676817675
 20
190.8717837215772
 30
0.0
 10
155.424408366378
 20
190.8731369045526
 30
0.0
 10
155.4291557967135
 20
190.8744017983281
 30
0.0
 10
155.434009972776
 20
190.8755784029045
 30
0.0
 10
155.4388641488367
 20
190.8767550074808
 30
0.0
 10
155.4438279640217
 20
190.8778416746308
 30
0.0
 10
155.4489014183254
 20
190.8788384043537
 30
0.0
 10
155.4539748726311
 20
190.8798351340765
 30
0.0
 10
155.4591608478749
 20
190.880740291067
 30
0.0
 10
155.4644593440589
 20
190.8815538753242
 30
0.0
 10
155.4697578402429
 20
190.8823674595824
 30
0.0
 10
155.4751717638319
 20
190.8830878187136
 30
0.0
 10
155.4807011148259
 20
190.8837149527171
 30
0.0
 10
155.4862304658199
 20
190.8843420867215
 30
0.0
 10
155.4918781550241
 20
190.8848743419585
 30
0.0
 10
155.4976441824401
 20
190.885311718428
 30
0.0
 10
155.5034102098561
 20
190.8857490948985
 30
0.0
 10
155.5092974897743
 20
190.8860899370929
 30
0.0
 10
155.5153060221946
 20
190.8863342450122
 30
0.0
 10
155.5213145546168
 20
190.8865785529315
 30
0.0
 10
155.5274472564779
 20
190.8867246688696
 30
0.0
 10
155.5337041277798
 20
190.8867725928248
 30
0.0
 10
155.5399609990818
 20
190.88682051678
 30
0.0
 10
155.5463449586586
 20
190.8867685887399
 30
0.0
 10
155.5528560065086
 20
190.8866168087033
 30
0.0
 10
155.5593670543585
 20
190.8864650286668
 30
0.0
 10
155.5660081105707
 20
190.8862117343651
 30
0.0
 10
155.5727791751433
 20
190.8858569257972
 30
0.0
 10
155.5795502397159
 20
190.8855021172294
 30
0.0
 10
155.5864542334766
 20
190.8850441300273
 30
0.0
 10
155.5934911564272
 20
190.8844829641912
 30
0.0
 10
155.6005280793761
 20
190.883921798355
 30
0.0
 10
155.607700852679
 20
190.8832557876139
 30
0.0
 10
155.6150094763306
 20
190.882484931968
 30
0.0
 10
155.6223180999823
 20
190.8817140763212
 30
0.0
 10
155.6297654952104
 20
190.8808367079
 30
0.0
 10
155.6373516620169
 20
190.8798528267016
 30
0.0
 10
155.6449378288234
 20
190.8788689455032
 30
0.0
 10
155.6526656881888
 20
190.8777768820155
 30
0.0
 10
155.6605352401166
 20
190.8765766362357
 30
0.0
 10
155.6684047920425
 20
190.8753763904551
 30
0.0
 10
155.6764189575424
 20
190.8740662926511
 30
0.0
 10
155.6845777366125
 20
190.872646342822
 30
0.0
 10
155.6927365156844
 20
190.8712263929928
 30
0.0
 10
155.7010428275371
 20
190.8696949162695
 30
0.0
 10
155.7094966721724
 20
190.8680519126519
 30
0.0
 10
155.717950516806
 20
190.8664089090343
 30
0.0
 10
155.7265548190171
 20
190.8646527205501
 30
0.0
 10
155.7353095788039
 20
190.8627833471983
 30
0.0
 10
155.7440643385889
 20
190.8609139738464
 30
0.0
 10
155.7541596997307
 20
190.8586537493238
 30
0.0
 10
155.7655956622256
 20
190.8560026736304
 30
0.0
 10
155.7770316247224
 20
190.8533515979361
 30
0.0
 10
155.7920817165559
 20
190.8496225641047
 30
0.0
 10
155.8107459377243
 20
190.8448155721362
 30
0.0
 10
155.8203013217116
 20
190.8442042875303
 30
0.0
 10
155.8291631141928
 20
190.8437037813737
 30
0.0
 10
155.8373313151678
 20
190.8433140536681
 30
0.0
 10
155.8454995161428
 20
190.8429243259615
 30
0.0
 10
155.8540912121789
 20
190.8426238574902
 30
0.0
 10
155.8631064032779
 20
190.842412648255
 30
0.0
 10
155.8721215943787
 20
190.842201439018
 30
0.0
 10
155.880959222377
 20
190.8421151620578
 30
0.0
 10
155.8896192872762
 20
190.8421538173716
 30
0.0
 10
155.8982793521736
 20
190.8421924726854
 30
0.0
 10
155.9067686296785
 20
190.8423626500835
 30
0.0
 10
155.9150871197907
 20
190.8426643495668
 30
0.0
 10
155.923405609903
 20
190.8429660490492
 30
0.0
 10
155.9315600871268
 20
190.8434058471685
 30
0.0
 10
155.9395505514621
 20
190.8439837439237
 30
0.0
 10
155.9475410157974
 20
190.8445616406789
 30
0.0
 10
155.9553742324824
 20
190.8452842319339
 30
0.0
 10
155.963050201517
 20
190.8461515176868
 30
0.0
 10
155.9707261705516
 20
190.8470188034407
 30
0.0
 10
155.9782516399355
 20
190.8480373990314
 30
0.0
 10
155.9856266096649
 20
190.8492073044608
 30
0.0
 10
155.9930015793961
 20
190.8503772098893
 30
0.0
 10
156.0002327706279
 20
190.851705056426
 30
0.0
 10
156.0073201833565
 20
190.8531908440709
 30
0.0
 10
156.014407596087
 20
190.8546766317158
 30
0.0
 10
156.0213579158353
 20
190.8563270006352
 30
0.0
 10
156.0281711426032
 20
190.8581419508282
 30
0.0
 10
156.0349843693711
 20
190.8599569010202
 30
0.0
 10
156.0416671439452
 20
190.8619430640419
 30
0.0
 10
156.0482194663272
 20
190.8641004398914
 30
0.0
 10
156.0547717887111
 20
190.8662578157409
 30
0.0
 10
156.0612002640046
 20
190.8685930261663
 30
0.0
 10
156.0675048922094
 20
190.8711060711675
 30
0.0
 10
156.0738095204124
 20
190.8736191161688
 30
0.0
 10
156.0799968390092
 20
190.8763165211085
 30
0.0
 10
156.0860668479981
 20
190.8791982859857
 30
0.0
 10
156.092136856987
 20
190.8820800508629
 30
0.0
 10
156.0980962030244
 20
190.8851528632485
 30
0.0
 10
156.1039448861102
 20
190.8884167231426
 30
0.0
 10
156.1097935691959
 20
190.8916805830358
 30
0.0
 10
156.1155380080254
 20
190.8951417508133
 30
0.0
 10
156.1211782025984
 20
190.8988002264732
 30
0.0
 10
156.1268183971715
 20
190.9024587021331
 30
0.0
 10
156.1323609210649
 20
190.9063208986763
 30
0.0
 10
156.1378057742822
 20
190.9103868161046
 30
0.0
 10
156.1432506274996
 20
190.9144527335311
 30
0.0
 10
156.1486045063775
 20
190.918728750853
 30
0.0
 10
156.1538674109197
 20
190.9232148680667
 30
0.0
 10
156.15913031546
 20
190.9277009852812
 30
0.0
 10
156.1636590449889
 20
190.9317752251099
 30
0.0
 10
156.1674535995025
 20
190.9354375875528
 30
0.0
 10
156.171248154018
 20
190.9390999499956
 30
0.0
 10
156.17439843588
 20
190.9422145151738
 30
0.0
 10
156.1769044450866
 20
190.9447812830867
 30
0.0
 10
156.179410454295
 20
190.9473480509996
 30
0.0
 10
156.1822124744703
 20
190.950313065442
 30
0.0
 10
156.1853105056143
 20
190.9536763264159
 30
0.0
 10
156.1884085367601
 20
190.9570395873888
 30
0.0
 10
156.1914604573158
 20
190.9604951644078
 30
0.0
 10
156.1944662672831
 20
190.9640430574727
 30
0.0
 10
156.1974720772505
 20
190.9675909505367
 30
0.0
 10
156.2007780039603
 20
190.9716122190266
 30
0.0
 10
156.2043840474107
 20
190.9761068629413
 30
0.0
 10
156.2079900908611
 20
190.9806015068561
 30
0.0
 10
156.2121131120311
 20
190.9860557688171
 30
0.0
 10
156.2167531109207
 20
190.9924696488251
 30
0.0
 10
156.2213931098085
 20
190.9988835288332
 30
0.0
 10
156.225977678976
 20
191.0055410424111
 30
0.0
 10
156.2305068184214
 20
191.012442189558
 30
0.0
 10
156.2350359578668
 20
191.0193433367048
 30
0.0
 10
156.2395164914396
 20
191.0264945942153
 30
0.0
 10
156.2439484191436
 20
191.0338959620894
 30
0.0
 10
156.2483803468458
 20
191.0412973299644
 30
0.0
 10
156.2527704780314
 20
191.0489553117877
 30
0.0
 10
156.2571188126985
 20
191.056869907562
 30
0.0
 10
156.2614671473657
 20
191.0647845033345
 30
0.0
 10
156.2657805109556
 20
191.0729622171284
 30
0.0
 10
156.2700589034703
 20
191.0814030489437
 30
0.0
 10
156.2743372959848
 20
191.089843880758
 30
0.0
 10
156.2785874122783
 20
191.0985544139976
 30
0.0
 10
156.2828092523505
 20
191.107534648665
 30
0.0
 10
156.2870310924227
 20
191.1165148833306
 30
0.0
 10
156.2909596392692
 20
191.1251500795397
 30
0.0
 10
156.2945948928918
 20
191.1334402372904
 30
0.0
 10
156.2982301465144
 20
191.141730395042
 30
0.0
 10
156.301578835486
 20
191.1495409068102
 30
0.0
 10
156.30464095981
 20
191.1568717725922
 30
0.0
 10
156.3051588399503
 20
191.1581162884995
 30
0.0
 10
156.3056767200905
 20
191.1593608044077
 30
0.0
 10
156.3061946002308
 20
191.160605320314
 30
0.0
  0
SPLINE
  5
90
330
70
100
AcDbEntity
  8
sakuzu
 62
     5
420
      255
370
    25
100
AcDbSpline
210
0.0
220
0.0
230
1.0
 70
     8
 71
     3
 72
   191
 73
   187
 74
     0
 42
0.0000000001
 43
0.0000000001
 40
0.0
 40
0.0
 40
0.0
 40
0.0
 40
1.0
 40
1.0
 40
1.0
 40
2.0
 40
2.0
 40
2.0
 40
3.0
 40
3.0
 40
3.0
 40
4.0
 40
4.0
 40
4.0
 40
5.0
 40
5.0
 40
5.0
 40
6.0
 40
6.0
 40
6.0
 40
7.0
 40
7.0
 40
7.0
 40
8.0
 40
8.0
 40
8.0
 40
9.0
 40
9.0
 40
9.0
 40
10.0
 40
10.0
 40
10.0
 40
11.0
 40
11.0
 40
11.0
 40
12.0
 40
12.0
 40
12.0
 40
13.0
 40
13.0
 40
13.0
 40
14.0
 40
14.0
 40
14.0
 40
15.0
 40
15.0
 40
15.0
 40
16.0
 40
16.0
 40
16.0
 40
17.0
 40
17.0
 40
17.0
 40
18.0
 40
18.0
 40
18.0
 40
19.0
 40
19.0
 40
19.0
 40
20.0
 40
20.0
 40
20.0
 40
21.0
 40
21.0
 40
21.0
 40
22.0
 40
22.0
 40
22.0
 40
23.0
 40
23.0
 40
23.0
 40
24.0
 40
24.0
 40
24.0
 40
25.0
 40
25.0
 40
25.0
 40
26.0
 40
26.0
 40
26.0
 40
27.0
 40
27.0
 40
27.0
 40
28.0
 40
28.0
 40
28.0
 40
29.0
 40
29.0
 40
29.0
 40
30.0
 40
30.0
 40
30.0
 40
31.0
 40
31.0
 40
31.0
 40
32.0
 40
32.0
 40
32.0
 40
33.0
 40
33.0
 40
33.0
 40
34.0
 40
34.0
 40
34.0
 40
35.0
 40
35.0
 40
35.0
 40
36.0
 40
36.0
 40
36.0
 40
37.0
 40
37.0
 40
37.0
 40
38.0
 40
38.0
 40
38.0
 40
39.0
 40
39.0
 40
39.0
 40
40.0
 40
40.0
 40
40.0
 40
41.0
 40
41.0
 40
41.0
 40
42.0
 40
42.0
 40
42.0
 40
43.0
 40
43.0
 40
43.0
 40
44.0
 40
44.0
 40
44.0
 40
45.0
 40
45.0
 40
45.0
 40
46.0
 40
46.0
 40
46.0
 40
47.0
 40
47.0
 40
47.0
 40
48.0
 40
48.0
 40
48.0
 40
49.0
 40
49.0
 40
49.0
 40
50.0
 40
50.0
 40
50.0
 40
51.0
 40
51.0
 40
51.0
 40
52.0
 40
52.0
 40
52.0
 40
53.0
 40
53.0
 40
53.0
 40
54.0
 40
54.0
 40
54.0
 40
55.0
 40
55.0
 40
55.0
 40
56.0
 40
56.0
 40
56.0
 40
57.0
 40
57.0
 40
57.0
 40
58.0
 40
58.0
 40
58.0
 40
59.0
 40
59.0
 40
59.0
 40
60.0
 40
60.0
 40
60.0
 40
61.0
 40
61.0
 40
61.0
 40
62.0
 40
62.0
 40
62.0
 40
62.0
 10
154.8255641368578
 20
190.9348561939869
 30
0.0
 10
154.8272835517182
 20
190.9457495825436
 30
0.0
 10
154.8290118646291
 20
190.9559002807818
 30
0.0
 10
154.8307490755942
 20
190.9653082887016
 30
0.0
 10
154.8324862865593
 20
190.9747162966223
 30
0.0
 10
154.8342401346017
 20
190.9833848328553
 30
0.0
 10
154.8360106197251
 20
190.9913138974007
 30
0.0
 10
154.8377811048485
 20
190.9992429619469
 30
0.0
 10
154.8396146744999
 20
191.0070951025755
 30
0.0
 10
154.841511328681
 20
191.014870319289
 30
0.0
 10
154.8434079828603
 20
191.0226455360016
 30
0.0
 10
154.8454590180099
 20
191.0303481828068
 30
0.0
 10
154.8476644341317
 20
191.0379782597047
 30
0.0
 10
154.8498698502517
 20
191.0456083366025
 30
0.0
 10
154.8521421837013
 20
191.0531569516242
 30
0.0
 10
154.8544814344859
 20
191.060624104769
 30
0.0
 10
154.8568206852687
 20
191.0680912579146
 30
0.0
 10
154.8593263584771
 20
191.0754715914154
 30
0.0
 10
154.8619984541073
 20
191.0827651052741
 30
0.0
 10
154.8646705497394
 20
191.0900586191319
 30
0.0
 10
154.8674140292569
 20
191.0972678299058
 30
0.0
 10
154.8702288926579
 20
191.1043927375949
 30
0.0
 10
154.8730437560589
 20
191.1115176452831
 30
0.0
 10
154.8765578105522
 20
191.1196801532342
 30
0.0
 10
154.8807710561359
 20
191.1288802614462
 30
0.0
 10
154.8849843017196
 20
191.1380803696584
 30
0.0
 10
154.8894309220159
 20
191.147103126128
 30
0.0
 10
154.8941109170209
 20
191.1559485308562
 30
0.0
 10
154.8987909120278
 20
191.1647939355844
 30
0.0
 10
154.9037139042411
 20
191.1734512910534
 30
0.0
 10
154.9088798936663
 20
191.1819205972633
 30
0.0
 10
154.9140458830879
 20
191.1903899034732
 30
0.0
 10
154.9194645021325
 20
191.1986604234325
 30
0.0
 10
154.9251357507946
 20
191.2067321571439
 30
0.0
 10
154.9308069994567
 20
191.2148038908544
 30
0.0
 10
154.9367404149052
 20
191.2226660002516
 30
0.0
 10
154.9429359971436
 20
191.2303184853344
 30
0.0
 10
154.9491315793821
 20
191.2379709704164
 30
0.0
 10
154.9555991026555
 20
191.2454031458428
 30
0.0
 10
154.9623385669656
 20
191.2526150116127
 30
0.0
 10
154.9690780312758
 20
191.2598268773818
 30
0.0
 10
154.9751779506077
 20
191.2659564091391
 30
0.0
 10
154.9806383249633
 20
191.2710036068838
 30
0.0
 10
154.986098699319
 20
191.2760508046294
 30
0.0
 10
154.991683369597
 20
191.2810223791412
 30
0.0
 10
154.997392335792
 20
191.2859183304199
 30
0.0
 10
155.003101301987
 20
191.2908142816995
 30
0.0
 10
155.0090081087946
 20
191.2955066887998
 30
0.0
 10
155.015112756213
 20
191.2999955517198
 30
0.0
 10
155.0212174036314
 20
191.3044844146407
 30
0.0
 10
155.0274664755052
 20
191.3088988439404
 30
0.0
 10
155.0338599718343
 20
191.3132388396197
 30
0.0
 10
155.0402534681634
 20
191.3175788352992
 30
0.0
 10
155.0468389865909
 20
191.3216971586243
 30
0.0
 10
155.0536165271169
 20
191.3255938095935
 30
0.0
 10
155.0603940676428
 20
191.3294904605636
 30
0.0
 10
155.0673388536106
 20
191.3333112741948
 30
0.0
 10
155.0744508850166
 20
191.3370562504897
 30
0.0
 10
155.0815629164262
 20
191.3408012267846
 30
0.0
 10
155.0888588924699
 20
191.3443094902832
 30
0.0
 10
155.0963388131495
 20
191.3475810409854
 30
0.0
 10
155.1038187338308
 20
191.3508525916877
 30
0.0
 10
155.1114903673915
 20
191.3540436674484
 30
0.0
 10
155.1193537138315
 20
191.3571542682657
 30
0.0
 10
155.1272170602733
 20
191.3602648690821
 30
0.0
 10
155.135255218056
 20
191.3631271987051
 30
0.0
 10
155.1434681871833
 20
191.365741257131
 30
0.0
 10
155.1516811563088
 20
191.3683553155579
 30
0.0
 10
155.1586372465717
 20
191.3704669473509
 30
0.0
 10
155.1643364579722
 20
191.372076152511
 30
0.0
 10
155.1757348807696
 20
191.3752945628294
 30
0.0
 10
155.18748409414
 20
191.3782023195672
 30
0.0
 10
155.1995840980817
 20
191.3807994227254
 30
0.0
 10
155.2116841020215
 20
191.3833965258836
 30
0.0
 10
155.2241446325151
 20
191.3856720519597
 30
0.0
 10
155.2369656895607
 20
191.3876260009528
 30
0.0
 10
155.2497867466045
 20
191.389579949946
 30
0.0
 10
155.2629777100974
 20
191.3912018154033
 30
0.0
 10
155.2765385800412
 20
191.3924915973239
 30
0.0
 10
155.2900994499832
 20
191.3937813792445
 30
0.0
 10
155.3040396951146
 20
191.3947284816877
 30
0.0
 10
155.3183593154354
 20
191.3953329046517
 30
0.0
 10
155.3326789357525
 20
191.3959373276166
 30
0.0
 10
155.3473873954863
 20
191.3961884857044
 30
0.0
 10
155.362484694635
 20
191.3960863789143
 30
0.0
 10
155.3775819937818
 20
191.3959842721242
 30
0.0
 10
155.3930778585636
 20
191.3955180235689
 30
0.0
 10
155.4089722889821
 20
191.3946876332493
 30
0.0
 10
155.4169195041904
 20
191.3942724380895
 30
0.0
 10
155.4249682431746
 20
191.3937641022867
 30
0.0
 10
155.4331185059327
 20
191.3931626258418
 30
0.0
 10
155.4412687686927
 20
191.3925611493969
 30
0.0
 10
155.4506013033806
 20
191.3917626831844
 30
0.0
 10
155.4611161099983
 20
191.3907672272071
 30
0.0
 10
155.4716309166142
 20
191.3897717712289
 30
0.0
 10
155.4854261491619
 20
191.3882069934025
 30
0.0
 10
155.5025018076358
 20
191.3860728937279
 30
0.0
 10
155.5079484503694
 20
191.3844184654572
 30
0.0
 10
155.5133705251501
 20
191.3828305396946
 30
0.0
 10
155.5187680319814
 20
191.381309116442
 30
0.0
 10
155.5241655388126
 20
191.3797876931885
 30
0.0
 10
155.530433135169
 20
191.3781793569642
 30
0.0
 10
155.5375708210485
 20
191.3764841077682
 30
0.0
 10
155.5447085069299
 20
191.3747888585712
 30
0.0
 10
155.5517927089113
 20
191.3732719082045
 30
0.0
 10
155.5588234269908
 20
191.371933256667
 30
0.0
 10
155.5658541450739
 20
191.3705946051295
 30
0.0
 10
155.5728310593531
 20
191.3694390127421
 30
0.0
 10
155.5797541698303
 20
191.3684664795055
 30
0.0
 10
155.5866772803092
 20
191.3674939462689
 30
0.0
 10
155.5935462576835
 20
191.3667092473815
 30
0.0
 10
155.6003611019532
 20
191.3661123828433
 30
0.0
 10
155.6071759462247
 20
191.3655155183059
 30
0.0
 10
155.6139363134316
 20
191.3651112780444
 30
0.0
 10
155.6206422035739
 20
191.3648996620595
 30
0.0
 10
155.6273480937161
 20
191.3646880460746
 30
0.0
 10
155.6339991384175
 20
191.364673854332
 30
0.0
 10
155.6405953376779
 20
191.3648570868308
 30
0.0
 10
155.6471915369366
 20
191.3650403193305
 30
0.0
 10
155.6537325051849
 20
191.3654257848729
 30
0.0
 10
155.6602182424194
 20
191.3660134834563
 30
0.0
 10
155.6667039796557
 20
191.3666011820387
 30
0.0
 10
155.6731340259539
 20
191.3673959001262
 30
0.0
 10
155.6795083813158
 20
191.3683976377178
 30
0.0
 10
155.6858827366759
 20
191.3693993753086
 30
0.0
 10
155.6922010862545
 20
191.3706129731563
 30
0.0
 10
155.6984634300461
 20
191.3720384312592
 30
0.0
 10
155.7047257738395
 20
191.3734638893629
 30
0.0
 10
155.7109314953104
 20
191.3751059190726
 30
0.0
 10
155.7170805944606
 20
191.3769645203901
 30
0.0
 10
155.7232296936108
 20
191.3788231217067
 30
0.0
 10
155.7293215976824
 20
191.3809030146649
 30
0.0
 10
155.7353563066735
 20
191.3832041992636
 30
0.0
 10
155.7413910156647
 20
191.3855053838624
 30
0.0
 10
155.747368131013
 20
191.3880325251539
 30
0.0
 10
155.7532876527202
 20
191.3907856231399
 30
0.0
 10
155.7592071744275
 20
191.3935387211268
 30
0.0
 10
155.7650686147244
 20
191.3965224113681
 30
0.0
 10
155.7708719736165
 20
191.3997366938647
 30
0.0
 10
155.7766753325068
 20
191.4029509763613
 30
0.0
 10
155.7824201585335
 20
191.4064004556949
 30
0.0
 10
155.7881064516932
 20
191.4100851318626
 30
0.0
 10
155.7937927448547
 20
191.4137698080312
 30
0.0
 10
155.7987089015714
 20
191.4171617769989
 30
0.0
 10
155.8028549218488
 20
191.4202610387656
 30
0.0
 10
155.8070009421244
 20
191.4233603005332
 30
0.0
 10
155.8104503874183
 20
191.4260104177283
 30
0.0
 10
155.8132032577286
 20
191.4282113903528
 30
0.0
 10
155.815956128039
 20
191.4304123629763
 30
0.0
 10
155.8193921948896
 20
191.433271226565
 30
0.0
 10
155.8235114582803
 20
191.4367879811188
 30
0.0
 10
155.8276307216711
 20
191.4403047356727
 30
0.0
 10
155.8320118354167
 20
191.4443058710503
 30
0.0
 10
155.8366547995192
 20
191.4487913872544
 30
0.0
 10
155.8412977636199
 20
191.4532769034585
 30
0.0
 10
155.8452487784234
 20
191.4572382747938
 30
0.0
 10
155.8485078439298
 20
191.4606755012628
 30
0.0
 10
155.8517669094363
 20
191.4641127277309
 30
0.0
 10
155.8553577419516
 20
191.4680217522054
 30
0.0
 10
155.8592803414703
 20
191.4724025746864
 30
0.0
 10
155.8632029409891
 20
191.4767833971673
 30
0.0
 10
155.8676939859815
 20
191.4821262939385
 30
0.0
 10
155.8727534764457
 20
191.4884312650001
 30
0.0
 10
155.8778129669099
 20
191.4947362360617
 30
0.0
 10
155.8828117605735
 20
191.5013052094409
 30
0.0
 10
155.8877498574366
 20
191.5081381851387
 30
0.0
 10
155.8926879542978
 20
191.5149711608364
 30
0.0
 10
155.897565058458
 20
191.5220728056283
 30
0.0
 10
155.9023811699153
 20
191.5294431195125
 30
0.0
 10
155.9071972813726
 20
191.5368134333967
 30
0.0
 10
155.911952095581
 20
191.5444571030575
 30
0.0
 10
155.9166456125458
 20
191.552374128496
 30
0.0
 10
155.921339129507
 20
191.5602911539345
 30
0.0
 10
155.9259710655133
 20
191.5684862139051
 30
0.0
 10
155.9305414205591
 20
191.5769593084096
 30
0.0
 10
155.9351117756068
 20
191.5854324029132
 30
0.0
 10
155.9396201486106
 20
191.5941883044006
 30
0.0
 10
155.9440665395741
 20
191.6032270128717
 30
0.0
 10
155.9485129305358
 20
191.6122657213427
 30
0.0
 10
155.9526164934141
 20
191.6209666917048
 30
0.0
 10
155.956377228209
 20
191.6293299239569
 30
0.0
 10
155.9601379630039
 20
191.6376931562099
 30
0.0
 10
155.9635775938677
 20
191.6455790169266
 30
0.0
 10
155.9666961208022
 20
191.6529875061069
 30
0.0
 10
155.967222344876
 20
191.6542442924401
 30
0.0
 10
155.9677485689499
 20
191.6555010787733
 30
0.0
 10
155.9682747930237
 20
191.6567578651065
 30
0.0
  0
SPLINE
  5
91
330
70
100
AcDbEntity
  8
sakuzu
 62
     5
420
      255
370
    25
100
AcDbSpline
210
0.0
220
0.0
230
1.0
 70
     8
 71
     3
 72
   161
 73
   157
 74
     0
 42
0.0000000001
 43
0.0000000001
 40
0.0
 40
0.0
 40
0.0
 40
0.0
 40
1.0
 40
1.0
 40
1.0
 40
2.0
 40
2.0
 40
2.0
 40
3.0
 40
3.0
 40
3.0
 40
4.0
 40
4.0
 40
4.0
 40
5.0
 40
5.0
 40
5.0
 40
6.0
 40
6.0
 40
6.0
 40
7.0
 40
7.0
 40
7.0
 40
8.0
 40
8.0
 40
8.0
 40
9.0
 40
9.0
 40
9.0
 40
10.0
 40
10.0
 40
10.0
 40
11.0
 40
11.0
 40
11.0
 40
12.0
 40
12.0
 40
12.0
 40
13.0
 40
13.0
 40
13.0
 40
14.0
 40
14.0
 40
14.0
 40
15.0
 40
15.0
 40
15.0
 40
16.0
 40
16.0
 40
16.0
 40
17.0
 40
17.0
 40
17.0
 40
18.0
 40
18.0
 40
18.0
 40
19.0
 40
19.0
 40
19.0
 40
20.0
 40
20.0
 40
20.0
 40
21.0
 40
21.0
 40
21.0
 40
22.0
 40
22.0
 40
22.0
 40
23.0
 40
23.0
 40
23.0
 40
24.0
 40
24.0
 40
24.0
 40
25.0
 40
25.0
 40
25.0
 40
26.0
 40
26.0
 40
26.0
 40
27.0
 40
27.0
 40
27.0
 40
28.0
 40
28.0
 40
28.0
 40
29.0
 40
29.0
 40
29.0
 40
30.0
 40
30.0
 40
30.0
 40
31.0
 40
31.0
 40
31.0
 40
32.0
 40
32.0
 40
32.0
 40
33.0
 40
33.0
 40
33.0
 40
34.0
 40
34.0
 40
34.0
 40
35.0
 40
35.0
 40
35.0
 40
36.0
 40
36.0
 40
36.0
 40
37.0
 40
37.0
 40
37.0
 40
38.0
 40
38.0
 40
38.0
 40
39.0
 40
39.0
 40
39.0
 40
40.0
 40
40.0
 40
40.0
 40
41.0
 40
41.0
 40
41.0
 40
42.0
 40
42.0
 40
42.0
 40
43.0
 40
43.0
 40
43.0
 40
44.0
 40
44.0
 40
44.0
 40
45.0
 40
45.0
 40
45.0
 40
46.0
 40
46.0
 40
46.0
 40
47.0
 40
47.0
 40
47.0
 40
48.0
 40
48.0
 40
48.0
 40
49.0
 40
49.0
 40
49.0
 40
50.0
 40
50.0
 40
50.0
 40
51.0
 40
51.0
 40
51.0
 40
52.0
 40
52.0
 40
52.0
 40
52.0
 10
157.336749242495
 20
186.4724959070317
 30
0.0
 10
157.5289407761138
 20
186.4724959068007
 30
0.0
 10
157.7211323097308
 20
186.4724959065688
 30
0.0
 10
157.9133238433496
 20
186.4724959063369
 30
0.0
 10
157.9138554533783
 20
186.4762831545031
 30
0.0
 10
157.9143932251882
 20
186.480068850642
 30
0.0
 10
157.9149371587809
 20
186.4838529947519
 30
0.0
 10
157.9188675776822
 20
186.5111969053932
 30
0.0
 10
157.923035015574
 20
186.5384267578702
 30
0.0
 10
157.9274394724525
 20
186.5655425521836
 30
0.0
 10
157.9318439293292
 20
186.592658346497
 30
0.0
 10
157.9364003022929
 20
186.6196270973832
 30
0.0
 10
157.9411085913361
 20
186.6464488048432
 30
0.0
 10
157.9458168803812
 20
186.6732705123022
 30
0.0
 10
157.9505914041601
 20
186.6999122065863
 30
0.0
 10
157.955432162671
 20
186.7263738876945
 30
0.0
 10
157.9602729211838
 20
186.7528355688055
 30
0.0
 10
157.9650957388949
 20
186.7790841364076
 30
0.0
 10
157.9699006158116
 20
186.8051195905009
 30
0.0
 10
157.9747054927265
 20
186.8311550445978
 30
0.0
 10
157.9794073963821
 20
186.8569443786273
 30
0.0
 10
157.9840063267747
 20
186.8824875925911
 30
0.0
 10
157.9886052571673
 20
186.9080308065549
 30
0.0
 10
157.9930164219477
 20
186.9332949387944
 30
0.0
 10
157.9972398211157
 20
186.9582799893087
 30
0.0
 10
158.0014632202856
 20
186.9832650398239
 30
0.0
 10
158.0054140248903
 20
187.0079381584455
 30
0.0
 10
158.0090922349336
 20
187.0322993451745
 30
0.0
 10
158.0127704449769
 20
187.0566605319045
 30
0.0
 10
158.0160912295778
 20
187.0806771028374
 30
0.0
 10
158.0190545887381
 20
187.1043490579732
 30
0.0
 10
158.0220179478983
 20
187.128021013109
 30
0.0
 10
158.0245389740175
 20
187.1513159094147
 30
0.0
 10
158.0266176670975
 20
187.1742337468895
 30
0.0
 10
158.0286963601756
 20
187.1971515843643
 30
0.0
 10
158.0302476226006
 20
187.2196602398325
 30
0.0
 10
158.0312714543743
 20
187.2417597132944
 30
0.0
 10
158.0322952861479
 20
187.2638591867562
 30
0.0
 10
158.0327061890748
 20
187.2855177298315
 30
0.0
 10
158.0325041631567
 20
187.3067353425213
 30
0.0
 10
158.0323021372387
 20
187.3279529552101
 30
0.0
 10
158.0314009469475
 20
187.3486982176709
 30
0.0
 10
158.0298005922796
 20
187.3689711299021
 30
0.0
 10
158.0282002376134
 20
187.3892440421323
 30
0.0
 10
158.0258132965246
 20
187.4090132141064
 30
0.0
 10
158.0226397690112
 20
187.4282786458225
 30
0.0
 10
158.0194662414997
 20
187.4475440775386
 30
0.0
 10
158.0154171345894
 20
187.4662736390592
 30
0.0
 10
158.0104924482839
 20
187.4844673303832
 30
0.0
 10
158.0055677619802
 20
187.5026610217064
 30
0.0
 10
158.0005233435295
 20
187.5181771020588
 30
0.0
 10
157.9953591929334
 20
187.5310155714396
 30
0.0
 10
157.9901950423373
 20
187.5438540408204
 30
0.0
 10
157.9861333288409
 20
187.5533511202047
 30
0.0
 10
157.9831740524441
 20
187.5595068095908
 30
0.0
 10
157.9802147760492
 20
187.5656624989769
 30
0.0
 10
157.9776828042504
 20
187.5707520840369
 30
0.0
 10
157.9755781370513
 20
187.574775564768
 30
0.0
 10
157.9652879480454
 20
187.6078256905475
 30
0.0
 10
157.9566747070094
 20
187.6352812618206
 30
0.0
 10
157.9497384139431
 20
187.6571422785891
 30
0.0
 10
157.9428021208769
 20
187.6790032953568
 30
0.0
 10
157.9358063071886
 20
187.7007426153232
 30
0.0
 10
157.9287509728765
 20
187.7223602384874
 30
0.0
 10
157.9216956385644
 20
187.7439778616517
 30
0.0
 10
157.9145462822962
 20
187.7654784846163
 30
0.0
 10
157.9073029040737
 20
187.7868621073803
 30
0.0
 10
157.900059525853
 20
187.8082457301443
 30
0.0
 10
157.8926877519443
 20
187.829516778288
 30
0.0
 10
157.8851875823511
 20
187.8506752518097
 30
0.0
 10
157.8776874127561
 20
187.8718337253322
 30
0.0
 10
157.8700244673255
 20
187.8928840315293
 30
0.0
 10
157.8621987460574
 20
187.9138261704001
 30
0.0
 10
157.8543730247893
 20
187.934768309271
 30
0.0
 10
157.8463501397418
 20
187.9556066747473
 30
0.0
 10
157.8381300909168
 20
187.9763412668289
 30
0.0
 10
157.8299100420918
 20
187.9970758589106
 30
0.0
 10
157.8214584353609
 20
188.0177110545555
 30
0.0
 10
157.812775270726
 20
188.0382468537627
 30
0.0
 10
157.804092106091
 20
188.0587826529717
 30
0.0
 10
157.7951429861841
 20
188.0792234122245
 30
0.0
 10
157.7859279110034
 20
188.099569131522
 30
0.0
 10
157.7767128358227
 20
188.1199148508194
 30
0.0
 10
157.7647197672813
 20
188.1452671770221
 30
0.0
 10
157.7499487053737
 20
188.1756261101291
 30
0.0
 10
157.7351776434661
 20
188.2059850432369
 30
0.0
 10
157.7194153733216
 20
188.2359765939736
 30
0.0
 10
157.7026618949421
 20
188.2656007623391
 30
0.0
 10
157.6859084165608
 20
188.2952249307045
 30
0.0
 10
157.6684382724179
 20
188.3249077539321
 30
0.0
 10
157.6502514625135
 20
188.3546492320229
 30
0.0
 10
157.6320646526073
 20
188.3843907101145
 30
0.0
 10
157.609094443258
 20
188.4186872251703
 30
0.0
 10
157.5813408344638
 20
188.4575387771929
 30
0.0
 10
157.5535872256696
 20
188.4963903292155
 30
0.0
 10
157.5237289137822
 20
188.5349854133828
 30
0.0
 10
157.4917658988015
 20
188.5733240296968
 30
0.0
 10
157.4598028838227
 20
188.6116626460107
 30
0.0
 10
157.4254639608989
 20
188.6497786423942
 30
0.0
 10
157.3887491300338
 20
188.6876720188456
 30
0.0
 10
157.3520342991687
 20
188.725565395297
 30
0.0
 10
157.3182091433664
 20
188.7583284196689
 30
0.0
 10
157.2872736626268
 20
188.7859610919595
 30
0.0
 10
157.2563381818854
 20
188.81359376425
 30
0.0
 10
157.2296819862877
 20
188.836736626703
 30
0.0
 10
157.2073050758354
 20
188.8553896793164
 30
0.0
 10
157.1849281653794
 20
188.8740427319308
 30
0.0
 10
157.1618054578666
 20
188.892660743797
 30
0.0
 10
157.1379369532915
 20
188.911243714916
 30
0.0
 10
157.1140684487163
 20
188.9298266860351
 30
0.0
 10
157.0894199508657
 20
188.9483789994547
 30
0.0
 10
157.0639914597359
 20
188.9669006551776
 30
0.0
 10
157.0385629686079
 20
188.9854223108996
 30
0.0
 10
157.0123202756658
 20
189.0039177054223
 30
0.0
 10
156.9852633809114
 20
189.0223868387456
 30
0.0
 10
156.9582064861551
 20
189.040855972069
 30
0.0
 10
156.930301167471
 20
189.0593032500756
 30
0.0
 10
156.9015474248572
 20
189.0777286727661
 30
0.0
 10
156.8727936822433
 20
189.0961540954577
 30
0.0
 10
156.8431572797344
 20
189.1145620744537
 30
0.0
 10
156.8126382173323
 20
189.1329526097561
 30
0.0
 10
156.7821191549301
 20
189.1513431450585
 30
0.0
 10
156.7506831787068
 20
189.1697206528624
 30
0.0
 10
156.7183302886678
 20
189.188085133167
 30
0.0
 10
156.6859773986289
 20
189.2064496134726
 30
0.0
 10
156.6526730966197
 20
189.2248055227674
 30
0.0
 10
156.618417382635
 20
189.2431528610513
 30
0.0
 10
156.5841616686521
 20
189.2615001993354
 30
0.0
 10
156.5559145186453
 20
189.2763030971882
 30
0.0
 10
156.5336759326164
 20
189.287561554609
 30
0.0
 10
156.5114373465858
 20
189.2988200120298
 30
0.0
 10
156.4957780934819
 20
189.3067172141464
 30
0.0
 10
156.486698173303
 20
189.3112531609595
 30
0.0
 10
156.4817861281444
 20
189.3157920228695
 30
0.0
 10
156.4733156811562
 20
189.3236597564792
 30
0.0
 10
156.4612868323384
 20
189.3348563617874
 30
0.0
 10
156.4492579835205
 20
189.3460529670974
 30
0.0
 10
156.4296587460521
 20
189.3646992361164
 30
0.0
 10
156.4024891199351
 20
189.3907951688443
 30
0.0
 10
156.3753194938181
 20
189.4168911015722
 30
0.0
 10
156.3491605740855
 20
189.4429217090119
 30
0.0
 10
156.3240123607411
 20
189.4688869911652
 30
0.0
 10
156.2988641473948
 20
189.4948522733175
 30
0.0
 10
156.2749104024824
 20
189.5200834851484
 30
0.0
 10
156.2521511260038
 20
189.5445806266552
 30
0.0
 10
156.2293918495252
 20
189.5690777681629
 30
0.0
 10
156.2075790020189
 20
189.5936271720275
 30
0.0
 10
156.1867125834887
 20
189.6182288382488
 30
0.0
 10
156.1658461649567
 20
189.6428305044701
 30
0.0
 10
156.1459226562965
 20
189.6669095419502
 30
0.0
 10
156.1269420575081
 20
189.6904659506872
 30
0.0
 10
156.1079614587215
 20
189.7140223594242
 30
0.0
 10
156.0871146392674
 20
189.7415297202705
 30
0.0
 10
156.0644015991456
 20
189.7729880332263
 30
0.0
 10
156.0503688383869
 20
189.7924238717232
 30
0.0
 10
156.0368408483537
 20
189.8118452937506
 30
0.0
 10
156.0238176290459
 20
189.8312522993101
 30
0.0
  0
SPLINE
  5
92
330
70
100
AcDbEntity
  8
sakuzu
 62
     5
420
      255
370
    25
100
AcDbSpline
210
0.0
220
0.0
230
1.0
 70
     8
 71
     3
 72
    38
 73
    34
 74
     0
 42
0.0000000001
 43
0.0000000001
 40
0.0
 40
0.0
 40
0.0
 40
0.0
 40
1.0
 40
1.0
 40
1.0
 40
2.0
 40
2.0
 40
2.0
 40
3.0
 40
3.0
 40
3.0
 40
4.0
 40
4.0
 40
4.0
 40
5.0
 40
5.0
 40
5.0
 40
6.0
 40
6.0
 40
6.0
 40
7.0
 40
7.0
 40
7.0
 40
8.0
 40
8.0
 40
8.0
 40
9.0
 40
9.0
 40
9.0
 40
10.0
 40
10.0
 40
10.0
 40
11.0
 40
11.0
 40
11.0
 40
11.0
 10
155.6133210345288
 20
190.8813892956459
 30
0.0
 10
155.6295354879476
 20
190.8235973754326
 30
0.0
 10
155.6439353909336
 20
190.7725364133366
 30
0.0
 10
155.6565207434869
 20
190.7282064093578
 30
0.0
 10
155.6691060960402
 20
190.6838764053773
 30
0.0
 10
155.6800427627713
 20
190.6459578131207
 30
0.0
 10
155.6893307436785
 20
190.6144506325891
 30
0.0
 10
155.6986187245857
 20
190.5829434520574
 30
0.0
 10
155.7062952991618
 20
190.5571923096822
 30
0.0
 10
155.712360467407
 20
190.5371972054645
 30
0.0
 10
155.7184256356522
 20
190.5172021012467
 30
0.0
 10
155.7259564579708
 20
190.4928525808009
 30
0.0
 10
155.7349529343664
 20
190.4641486441278
 30
0.0
 10
155.7439494107602
 20
190.4354447074538
 30
0.0
 10
155.7547093169342
 20
190.4027734049141
 30
0.0
 10
155.7672326528882
 20
190.3661347365087
 30
0.0
 10
155.7797559888422
 20
190.3294960681023
 30
0.0
 10
155.7926515806775
 20
190.2937594432496
 30
0.0
 10
155.8059194283942
 20
190.2589248619479
 30
0.0
 10
155.8191872761108
 20
190.2240902806461
 30
0.0
 10
155.8330192335434
 20
190.1899688342955
 30
0.0
 10
155.8474153006937
 20
190.1565605228961
 30
0.0
 10
155.8618113678458
 20
190.1231522114958
 30
0.0
 10
155.8769625064906
 20
190.0902689282729
 30
0.0
 10
155.8928687166335
 20
190.0579106732275
 30
0.0
 10
155.9087749267746
 20
190.0255524181821
 30
0.0
 10
155.9256278996108
 20
189.99353171454
 30
0.0
 10
155.9434276351439
 20
189.9618485623032
 30
0.0
 10
155.9612273706771
 20
189.9301654100654
 30
0.0
 10
155.9801613718628
 20
189.898632445399
 30
0.0
 10
156.0002296387029
 20
189.8672496683029
 30
0.0
 10
156.0078991607734
 20
189.8552560615062
 30
0.0
 10
156.015761824221
 20
189.8432569385086
 30
0.0
 10
156.0238176290459
 20
189.8312522993101
 30
0.0
  0
SPLINE
  5
93
330
70
100
AcDbEntity
  8
sakuzu
 62
     5
420
      255
370
    25
100
AcDbSpline
210
0.0
220
0.0
230
1.0
 70
     8
 71
     3
 72
    80
 73
    76
 74
     0
 42
0.0000000001
 43
0.0000000001
 40
0.0
 40
0.0
 40
0.0
 40
0.0
 40
1.0
 40
1.0
 40
1.0
 40
2.0
 40
2.0
 40
2.0
 40
3.0
 40
3.0
 40
3.0
 40
4.0
 40
4.0
 40
4.0
 40
5.0
 40
5.0
 40
5.0
 40
6.0
 40
6.0
 40
6.0
 40
7.0
 40
7.0
 40
7.0
 40
8.0
 40
8.0
 40
8.0
 40
9.0
 40
9.0
 40
9.0
 40
10.0
 40
10.0
 40
10.0
 40
11.0
 40
11.0
 40
11.0
 40
12.0
 40
12.0
 40
12.0
 40
13.0
 40
13.0
 40
13.0
 40
14.0
 40
14.0
 40
14.0
 40
15.0
 40
15.0
 40
15.0
 40
16.0
 40
16.0
 40
16.0
 40
17.0
 40
17.0
 40
17.0
 40
18.0
 40
18.0
 40
18.0
 40
19.0
 40
19.0
 40
19.0
 40
20.0
 40
20.0
 40
20.0
 40
21.0
 40
21.0
 40
21.0
 40
22.0
 40
22.0
 40
22.0
 40
23.0
 40
23.0
 40
23.0
 40
24.0
 40
24.0
 40
24.0
 40
25.0
 40
25.0
 40
25.0
 40
25.0
 10
155.4047747912391
 20
191.4084563503793
 30
0.0
 10
155.4025729769928
 20
191.4149277380538
 30
0.0
 10
155.3998281856711
 20
191.4229645680025
 30
0.0
 10
155.3965404172759
 20
191.4325668402243
 30
0.0
 10
155.3932526488825
 20
191.4421691124462
 30
0.0
 10
155.3851517991734
 20
191.4655974078896
 30
0.0
 10
155.3722378681523
 20
191.5028517265527
 30
0.0
 10
155.3593239371293
 20
191.5401060452168
 30
0.0
 10
155.342936045412
 20
191.5856869058925
 30
0.0
 10
155.3230741929965
 20
191.6395943085799
 30
0.0
 10
155.303212340581
 20
191.6935017112682
 30
0.0
 10
155.2804730724256
 20
191.7536488850819
 30
0.0
 10
155.254856388532
 20
191.82003583002
 30
0.0
 10
155.2292397046367
 20
191.8864227749591
 30
0.0
 10
155.2032563447956
 20
191.951001717488
 30
0.0
 10
155.1769063090069
 20
192.0137726576067
 30
0.0
 10
155.1505562732163
 20
192.0765435977264
 30
0.0
 10
155.1288823395462
 20
192.1274334551126
 30
0.0
 10
155.1118845079927
 20
192.1664422297672
 30
0.0
 10
155.0948866764411
 20
192.2054510044218
 30
0.0
 10
155.0779936853596
 20
192.2435835242286
 30
0.0
 10
155.0612055347464
 20
192.2808397891876
 30
0.0
 10
155.0444173841333
 20
192.3180960541476
 30
0.0
 10
155.0277483231912
 20
192.3545569043308
 30
0.0
 10
155.0111983519145
 20
192.3902223397372
 30
0.0
 10
154.9946483806398
 20
192.4258877751436
 30
0.0
 10
154.9782317541103
 20
192.4608386609561
 30
0.0
 10
154.961948472328
 20
192.4950749971731
 30
0.0
 10
154.9456651905457
 20
192.529311333391
 30
0.0
 10
154.9295295142728
 20
192.562914010542
 30
0.0
 10
154.9135414435077
 20
192.5958830286272
 30
0.0
 10
154.8975533727462
 20
192.6288520467133
 30
0.0
 10
154.8836431306317
 20
192.657373989251
 30
0.0
 10
154.8718107171698
 20
192.6814488562395
 30
0.0
 10
154.859978303708
 20
192.7055237232289
 30
0.0
 10
154.8501922616469
 20
192.7254009348034
 30
0.0
 10
154.8424525909868
 20
192.741080490965
 30
0.0
 10
154.8347129203266
 20
192.7567600471266
 30
0.0
 10
154.8260770753168
 20
192.7742266025134
 30
0.0
 10
154.8165450559572
 20
192.7934801571255
 30
0.0
 10
154.8070130365977
 20
192.8127337117366
 30
0.0
 10
154.795693473121
 20
192.8355825104245
 30
0.0
 10
154.7825863655253
 20
192.8620265531881
 30
0.0
 10
154.7694792579314
 20
192.8884705959517
 30
0.0
 10
154.755612374216
 20
192.9165218261496
 30
0.0
 10
154.7409857143811
 20
192.9461802437836
 30
0.0
 10
154.7263590545444
 20
192.9758386614166
 30
0.0
 10
154.7119477766991
 20
193.0052479729857
 30
0.0
 10
154.6977518808453
 20
193.0344081784897
 30
0.0
 10
154.6835559849896
 20
193.0635683839946
 30
0.0
 10
154.6695898393282
 20
193.0925605294405
 30
0.0
 10
154.6558534438554
 20
193.1213846148293
 30
0.0
 10
154.6421170483845
 20
193.1502087002181
 30
0.0
 10
154.6286247420921
 20
193.1789457390869
 30
0.0
 10
154.6153765249819
 20
193.2075957314355
 30
0.0
 10
154.6021283078717
 20
193.2362457237841
 30
0.0
 10
154.5891385324685
 20
193.2648897024228
 30
0.0
 10
154.5764071987723
 20
193.2935276673515
 30
0.0
 10
154.5636758650762
 20
193.3221656322794
 30
0.0
 10
154.5512173811021
 20
193.3508784625864
 30
0.0
 10
154.53903174685
 20
193.3796661582691
 30
0.0
 10
154.5268461125961
 20
193.4084538539537
 30
0.0
 10
154.5149476097067
 20
193.4373977841633
 30
0.0
 10
154.50333623818
 20
193.466497948898
 30
0.0
 10
154.4917248666515
 20
193.4955981136336
 30
0.0
 10
154.4804155122692
 20
193.524933649689
 30
0.0
 10
154.4694081750331
 20
193.5545045570652
 30
0.0
 10
154.4584008377969
 20
193.5840754644423
 30
0.0
 10
154.4496726755333
 20
193.6082496329654
 30
0.0
 10
154.4432236882403
 20
193.6270270626364
 30
0.0
 10
154.4367747009492
 20
193.6458044923074
 30
0.0
 10
154.4322798208268
 20
193.6589745878327
 30
0.0
 10
154.4297390478696
 20
193.6665373492114
 30
0.0
 10
154.428466243382
 20
193.6703259272508
 30
0.0
 10
154.4271958710706
 20
193.6741285335365
 30
0.0
 10
154.4259279309353
 20
193.6779451680695
 30
0.0
  0
SPLINE
  5
94
330
70
100
AcDbEntity
  8
sakuzu
 62
     5
420
      255
370
    25
100
AcDbSpline
210
0.0
220
0.0
230
1.0
 70
     9
 71
     3
 72
   143
 73
   139
 74
     0
 42
0.0000000001
 43
0.0000000001
 40
0.0
 40
0.0
 40
0.0
 40
0.0
 40
1.0
 40
1.0
 40
1.0
 40
2.0
 40
2.0
 40
2.0
 40
3.0
 40
3.0
 40
3.0
 40
4.0
 40
4.0
 40
4.0
 40
5.0
 40
5.0
 40
5.0
 40
6.0
 40
6.0
 40
6.0
 40
7.0
 40
7.0
 40
7.0
 40
8.0
 40
8.0
 40
8.0
 40
9.0
 40
9.0
 40
9.0
 40
10.0
 40
10.0
 40
10.0
 40
11.0
 40
11.0
 40
11.0
 40
12.0
 40
12.0
 40
12.0
 40
13.0
 40
13.0
 40
13.0
 40
14.0
 40
14.0
 40
14.0
 40
15.0
 40
15.0
 40
15.0
 40
16.0
 40
16.0
 40
16.0
 40
17.0
 40
17.0
 40
17.0
 40
18.0
 40
18.0
 40
18.0
 40
19.0
 40
19.0
 40
19.0
 40
20.0
 40
20.0
 40
20.0
 40
21.0
 40
21.0
 40
21.0
 40
22.0
 40
22.0
 40
22.0
 40
23.0
 40
23.0
 40
23.0
 40
24.0
 40
24.0
 40
24.0
 40
25.0
 40
25.0
 40
25.0
 40
26.0
 40
26.0
 40
26.0
 40
27.0
 40
27.0
 40
27.0
 40
28.0
 40
28.0
 40
28.0
 40
29.0
 40
29.0
 40
29.0
 40
30.0
 40
30.0
 40
30.0
 40
31.0
 40
31.0
 40
31.0
 40
32.0
 40
32.0
 40
32.0
 40
33.0
 40
33.0
 40
33.0
 40
34.0
 40
34.0
 40
34.0
 40
35.0
 40
35.0
 40
35.0
 40
36.0
 40
36.0
 40
36.0
 40
37.0
 40
37.0
 40
37.0
 40
38.0
 40
38.0
 40
38.0
 40
39.0
 40
39.0
 40
39.0
 40
40.0
 40
40.0
 40
40.0
 40
41.0
 40
41.0
 40
41.0
 40
42.0
 40
42.0
 40
42.0
 40
43.0
 40
43.0
 40
43.0
 40
44.0
 40
44.0
 40
44.0
 40
45.0
 40
45.0
 40
45.0
 40
46.0
 40
46.0
 40
46.0
 40
46.0
 10
276.8634921243993
 20
135.3952497673017
 30
0.0
 10
276.8482906382724
 20
135.3900397759534
 30
0.0
 10
276.8337451966399
 20
135.3857017974151
 30
0.0
 10
276.8198557995056
 20
135.3822358316829
 30
0.0
 10
276.8059664023695
 20
135.3787698659507
 30
0.0
 10
276.7928891887332
 20
135.3759482847217
 30
0.0
 10
276.780624158595
 20
135.3737710879977
 30
0.0
 10
276.7683591284567
 20
135.3715938912755
 30
0.0
 10
276.7561318553417
 20
135.3698511377242
 30
0.0
 10
276.7439423392534
 20
135.3685428273475
 30
0.0
 10
276.7317528231633
 20
135.3672345169689
 30
0.0
 10
276.7196132325171
 20
135.3663472005664
 30
0.0
 10
276.707523567311
 20
135.3658808781401
 30
0.0
 10
276.6954339021067
 20
135.365414555712
 30
0.0
 10
276.6834063068527
 20
135.3653557600519
 30
0.0
 10
276.6714407815489
 20
135.365704491156
 30
0.0
 10
276.6594752562451
 20
135.366053222262
 30
0.0
 10
276.6475839171944
 20
135.3667960019284
 30
0.0
 10
276.6357667644006
 20
135.367932830155
 30
0.0
 10
276.6239496116032
 20
135.3690696583817
 30
0.0
 10
276.6122187330402
 20
135.3705870541416
 30
0.0
 10
276.6005741287117
 20
135.3724850174294
 30
0.0
 10
276.5889295243815
 20
135.3743829807172
 30
0.0
 10
276.5773832561954
 20
135.3766480348422
 30
0.0
 10
276.5659353241499
 20
135.3792801798045
 30
0.0
 10
276.5544873921062
 20
135.3819123247685
 30
0.0
 10
276.5431498359085
 20
135.3848980937673
 30
0.0
 10
276.5319226555584
 20
135.3882374868062
 30
0.0
 10
276.5206954752066
 20
135.3915768798433
 30
0.0
 10
276.5095906929109
 20
135.3952564437695
 30
0.0
 10
276.498608308666
 20
135.399276178583
 30
0.0
 10
276.4876259244229
 20
135.4032959133965
 30
0.0
 10
276.4767779478225
 20
135.4076423816623
 30
0.0
 10
276.4660643788611
 20
135.4123155833767
 30
0.0
 10
276.4553508099016
 20
135.416988785093
 30
0.0
 10
276.4447836501276
 20
135.4219752991703
 30
0.0
 10
276.4343628995393
 20
135.4272751256121
 30
0.0
 10
276.423942148951
 20
135.4325749520521
 30
0.0
 10
276.4136798049676
 20
135.4381746857652
 30
0.0
 10
276.4035758675909
 20
135.4440743267496
 30
0.0
 10
276.3934719302142
 20
135.4499739677321
 30
0.0
 10
276.3835383961032
 20
135.4561601256609
 30
0.0
 10
276.3737752652596
 20
135.4626328005324
 30
0.0
 10
276.3640121344161
 20
135.4691054754039
 30
0.0
 10
276.3544314046849
 20
135.4758512909175
 30
0.0
 10
276.3450330760643
 20
135.4828702470731
 30
0.0
 10
276.3356347474455
 20
135.4898892032288
 30
0.0
 10
276.3264308231774
 20
135.4971679333575
 30
0.0
 10
276.3174213032617
 20
135.5047064374557
 30
0.0
 10
276.3084117833459
 20
135.5122449415539
 30
0.0
 10
276.2996086681596
 20
135.5200298728414
 30
0.0
 10
276.2910119577009
 20
135.5280612313126
 30
0.0
 10
276.282415247244
 20
135.5360925897839
 30
0.0
 10
276.2740369798867
 20
135.5443569985727
 30
0.0
 10
276.2658771556307
 20
135.5528544576809
 30
0.0
 10
276.2577173313748
 20
135.5613519167873
 30
0.0
 10
276.2497878629183
 20
135.5700692186783
 30
0.0
 10
276.2420887502631
 20
135.5790063633521
 30
0.0
 10
276.234389637606
 20
135.5879435080278
 30
0.0
 10
276.2269330206582
 20
135.5970870271248
 30
0.0
 10
276.219718899416
 20
135.6064369206451
 30
0.0
 10
276.2125047781756
 20
135.6157868141654
 30
0.0
 10
276.2055452041204
 20
135.6253297356907
 30
0.0
 10
276.1988401772505
 20
135.6350656852191
 30
0.0
 10
276.1921351503825
 20
135.6448016347494
 30
0.0
 10
276.1856966665982
 20
135.6547173533581
 30
0.0
 10
276.1795247259015
 20
135.664812841047
 30
0.0
 10
276.173352785203
 20
135.6749083287359
 30
0.0
 10
276.1674594468186
 20
135.685170262408
 30
0.0
 10
276.1618447107466
 20
135.6955986420653
 30
0.0
 10
276.1562299746729
 20
135.7060270217207
 30
0.0
 10
276.1509059054588
 20
135.7166085334575
 30
0.0
 10
276.1458725031043
 20
135.7273431772755
 30
0.0
 10
276.140839100748
 20
135.7380778210918
 30
0.0
 10
276.1361084421242
 20
135.7489522829965
 30
0.0
 10
276.131680527229
 20
135.7599665629896
 30
0.0
 10
276.1272526123357
 20
135.7709808429827
 30
0.0
 10
276.1231395306077
 20
135.782121625738
 30
0.0
 10
276.1193412820448
 20
135.7933889112555
 30
0.0
 10
276.1155430334857
 20
135.8046561967749
 30
0.0
 10
276.1120717207614
 20
135.8160366658067
 30
0.0
 10
276.1089273438738
 20
135.8275303183545
 30
0.0
 10
276.1057829669862
 20
135.8390239709024
 30
0.0
 10
276.1029776419673
 20
135.8506174807935
 30
0.0
 10
276.100511368817
 20
135.862310848026
 30
0.0
 10
276.0980450956686
 20
135.8740042152603
 30
0.0
 10
276.0959300031973
 20
135.8857841033114
 30
0.0
 10
276.0941660914014
 20
135.8976505121791
 30
0.0
 10
276.0924021796054
 20
135.9095169210468
 30
0.0
 10
276.0910015885038
 20
135.9214565001766
 30
0.0
 10
276.0899643180946
 20
135.9334692495686
 30
0.0
 10
276.0889270476855
 20
135.9454819989623
 30
0.0
 10
276.0882652464352
 20
135.9575545504285
 30
0.0
 10
276.0879789143437
 20
135.9696869039726
 30
0.0
 10
276.0876925822522
 20
135.9818192575148
 30
0.0
 10
276.0877938721751
 20
135.9939980242216
 30
0.0
 10
276.0882827841105
 20
136.0062232040927
 30
0.0
 10
276.0887716960497
 20
136.0184483839621
 30
0.0
 10
276.0896603819638
 20
136.0307065652996
 30
0.0
 10
276.0909488418565
 20
136.0429977481017
 30
0.0
 10
276.0922373017493
 20
136.0552889309037
 30
0.0
 10
276.093937680489
 20
136.0675996801874
 30
0.0
 10
276.0960499780777
 20
136.0799299959544
 30
0.0
 10
276.0981622756663
 20
136.0922603117215
 30
0.0
 10
276.1006986233169
 20
136.1045967371828
 30
0.0
 10
276.1036590210297
 20
136.1169392723368
 30
0.0
 10
276.1066194187424
 20
136.1292818074926
 30
0.0
 10
276.1100159778944
 20
136.1416169774038
 30
0.0
 10
276.1138486984892
 20
136.1539447820723
 30
0.0
 10
276.1176814190822
 20
136.1662725867427
 30
0.0
 10
276.1219623873021
 20
136.1785795391824
 30
0.0
 10
276.1266916031491
 20
136.1908656393952
 30
0.0
 10
276.1314208189924
 20
136.2031517396044
 30
0.0
 10
276.1366103257424
 20
136.2154035113981
 30
0.0
 10
276.1422601233953
 20
136.2276209547726
 30
0.0
 10
276.1479099210482
 20
136.2398383981472
 30
0.0
 10
276.1540314879112
 20
136.2520086107088
 30
0.0
 10
276.1606248239841
 20
136.2641315924575
 30
0.0
 10
276.167218160057
 20
136.2762545742062
 30
0.0
 10
276.1733310045311
 20
136.2867805321602
 30
0.0
 10
276.1789633574062
 20
136.2957094663179
 30
0.0
 10
276.1845957102833
 20
136.3046384004774
 30
0.0
 10
276.1894156761045
 20
136.3120921558256
 30
0.0
 10
276.1934232548719
 20
136.3180707323608
 30
0.0
 10
276.1974308336394
 20
136.3240493088978
 30
0.0
 10
276.2016214735067
 20
136.3299463426447
 30
0.0
 10
276.2059951744759
 20
136.3357618336031
 30
0.0
 10
276.2103688754469
 20
136.3415773245615
 30
0.0
 10
276.2140320007293
 20
136.3469322555447
 30
0.0
 10
276.2169845503195
 20
136.3518266265528
 30
0.0
 10
276.2199370999115
 20
136.356720997559
 30
0.0
 10
276.5352501325651
 20
136.5780588500911
 30
0.0
 10
277.1629236482822
 20
137.0158401841508
 30
0.0
 10
277.3865517426602
 20
136.6953297321161
 30
0.0
 10
277.6101798370364
 20
136.3748192800831
 30
0.0
 10
277.8338079314126
 20
136.0543088280483
 30
0.0
 10
277.5103693290748
 20
135.8346224744655
 30
0.0
 10
277.186930726737
 20
135.6149361208827
 30
0.0
 10
276.8634921243993
 20
135.3952497673017
 30
0.0
  0
LINE
  5
95
330
70
100
AcDbEntity
  8
sakuzu
 62
     5
420
      255
370
    25
100
AcDbLine
 10
277.3691330023885
 20
136.7202377798949
 30
0.0
 11
277.8500535345429
 21
137.055426523837
 31
0.0
  0
LINE
  5
96
330
70
100
AcDbEntity
  8
sakuzu
 62
     5
420
      255
370
    25
100
AcDbLine
 10
277.6270636267709
 20
136.3501646299264
 30
0.0
 11
278.1079560036324
 21
136.6853252185774
 31
0.0
  0
SPLINE
  5
97
330
70
100
AcDbEntity
  8
sakuzu
 62
     5
420
      255
370
    25
100
AcDbSpline
210
0.0
220
0.0
230
1.0
 70
     8
 71
     3
 72
   236
 73
   232
 74
     0
 42
0.0000000001
 43
0.0000000001
 40
0.0
 40
0.0
 40
0.0
 40
0.0
 40
1.0
 40
1.0
 40
1.0
 40
2.0
 40
2.0
 40
2.0
 40
3.0
 40
3.0
 40
3.0
 40
4.0
 40
4.0
 40
4.0
 40
5.0
 40
5.0
 40
5.0
 40
6.0
 40
6.0
 40
6.0
 40
7.0
 40
7.0
 40
7.0
 40
8.0
 40
8.0
 40
8.0
 40
9.0
 40
9.0
 40
9.0
 40
10.0
 40
10.0
 40
10.0
 40
11.0
 40
11.0
 40
11.0
 40
12.0
 40
12.0
 40
12.0
 40
13.0
 40
13.0
 40
13.0
 40
14.0
 40
14.0
 40
14.0
 40
15.0
 40
15.0
 40
15.0
 40
16.0
 40
16.0
 40
16.0
 40
17.0
 40
17.0
 40
17.0
 40
18.0
 40
18.0
 40
18.0
 40
19.0
 40
19.0
 40
19.0
 40
20.0
 40
20.0
 40
20.0
 40
21.0
 40
21.0
 40
21.0
 40
22.0
 40
22.0
 40
22.0
 40
23.0
 40
23.0
 40
23.0
 40
24.0
 40
24.0
 40
24.0
 40
25.0
 40
25.0
 40
25.0
 40
26.0
 40
26.0
 40
26.0
 40
27.0
 40
27.0
 40
27.0
 40
28.0
 40
28.0
 40
28.0
 40
29.0
 40
29.0
 40
29.0
 40
30.0
 40
30.0
 40
30.0
 40
31.0
 40
31.0
 40
31.0
 40
32.0
 40
32.0
 40
32.0
 40
33.0
 40
33.0
 40
33.0
 40
34.0
 40
34.0
 40
34.0
 40
35.0
 40
35.0
 40
35.0
 40
36.0
 40
36.0
 40
36.0
 40
37.0
 40
37.0
 40
37.0
 40
38.0
 40
38.0
 40
38.0
 40
39.0
 40
39.0
 40
39.0
 40
40.0
 40
40.0
 40
40.0
 40
41.0
 40
41.0
 40
41.0
 40
42.0
 40
42.0
 40
42.0
 40
43.0
 40
43.0
 40
43.0
 40
44.0
 40
44.0
 40
44.0
 40
45.0
 40
45.0
 40
45.0
 40
46.0
 40
46.0
 40
46.0
 40
47.0
 40
47.0
 40
47.0
 40
48.0
 40
48.0
 40
48.0
 40
49.0
 40
49.0
 40
49.0
 40
50.0
 40
50.0
 40
50.0
 40
51.0
 40
51.0
 40
51.0
 40
52.0
 40
52.0
 40
52.0
 40
53.0
 40
53.0
 40
53.0
 40
54.0
 40
54.0
 40
54.0
 40
55.0
 40
55.0
 40
55.0
 40
56.0
 40
56.0
 40
56.0
 40
57.0
 40
57.0
 40
57.0
 40
58.0
 40
58.0
 40
58.0
 40
59.0
 40
59.0
 40
59.0
 40
60.0
 40
60.0
 40
60.0
 40
61.0
 40
61.0
 40
61.0
 40
62.0
 40
62.0
 40
62.0
 40
63.0
 40
63.0
 40
63.0
 40
64.0
 40
64.0
 40
64.0
 40
65.0
 40
65.0
 40
65.0
 40
66.0
 40
66.0
 40
66.0
 40
67.0
 40
67.0
 40
67.0
 40
68.0
 40
68.0
 40
68.0
 40
69.0
 40
69.0
 40
69.0
 40
70.0
 40
70.0
 40
70.0
 40
71.0
 40
71.0
 40
71.0
 40
72.0
 40
72.0
 40
72.0
 40
73.0
 40
73.0
 40
73.0
 40
74.0
 40
74.0
 40
74.0
 40
75.0
 40
75.0
 40
75.0
 40
76.0
 40
76.0
 40
76.0
 40
77.0
 40
77.0
 40
77.0
 40
77.0
 10
273.2940487484393
 20
134.0837199839898
 30
0.0
 10
273.3049647869393
 20
134.0849182677284
 30
0.0
 10
273.31513927977
 20
134.0860092913735
 30
0.0
 10
273.3245722269294
 20
134.0869930549197
 30
0.0
 10
273.3340051740906
 20
134.0879768184677
 30
0.0
 10
273.3427113411362
 20
134.0888357257226
 30
0.0
 10
273.3506907280662
 20
134.0895697766846
 30
0.0
 10
273.3586701149943
 20
134.0903038276465
 30
0.0
 10
273.3665543492716
 20
134.0909983318797
 30
0.0
 10
273.3743434308999
 20
134.091653289388
 30
0.0
 10
273.38213251253
 20
134.0923082468944
 30
0.0
 10
273.3898763476991
 20
134.0928789366699
 30
0.0
 10
273.3975749364126
 20
134.0933653587108
 30
0.0
 10
273.4052735251244
 20
134.0938517807535
 30
0.0
 10
273.4128692925588
 20
134.0942849777984
 30
0.0
 10
273.4203622387158
 20
134.0946649498492
 30
0.0
 10
273.4278551848729
 20
134.0950449218999
 30
0.0
 10
273.4352979430805
 20
134.0953085586134
 30
0.0
 10
273.4426905133387
 20
134.0954558599933
 30
0.0
 10
273.450083083595
 20
134.0956031613732
 30
0.0
 10
273.4561892953479
 20
134.0956808436276
 30
0.0
 10
273.4610091485938
 20
134.0956889067565
 30
0.0
 10
273.4658290018415
 20
134.0956969698854
 30
0.0
 10
273.4706119015209
 20
134.095657529886
 30
0.0
 10
273.4753578476302
 20
134.0955705867563
 30
0.0
 10
273.4801037937414
 20
134.0954836436267
 30
0.0
 10
273.4848119129347
 20
134.0953458474851
 30
0.0
 10
273.4894822052138
 20
134.0951571983296
 30
0.0
 10
273.4941524974929
 20
134.0949685491778
 30
0.0
 10
273.4993475156189
 20
134.0946899356459
 30
0.0
 10
273.5050672595953
 20
134.0943213577375
 30
0.0
 10
273.5107870035717
 20
134.0939527798291
 30
0.0
 10
273.5164536212906
 20
134.0934724320141
 30
0.0
 10
273.5220671127536
 20
134.0928803142924
 30
0.0
 10
273.5276806042147
 20
134.0922881965707
 30
0.0
 10
273.5326832229639
 20
134.0916934169818
 30
0.0
 10
273.537074969001
 20
134.0910959755274
 30
0.0
 10
273.541466715038
 20
134.0904985340712
 30
0.0
 10
273.5458167038087
 20
134.0898351370233
 30
0.0
 10
273.5501249353165
 20
134.0891057843819
 30
0.0
 10
273.5544331668225
 20
134.0883764317423
 30
0.0
 10
273.5586987645293
 20
134.0875777590736
 30
0.0
 10
273.5629217284349
 20
134.0867097663777
 30
0.0
 10
273.5671446923388
 20
134.0858417736835
 30
0.0
 10
273.5713241428693
 20
134.0849010933579
 30
0.0
 10
273.5754600800265
 20
134.0838877253991
 30
0.0
 10
273.5795960171818
 20
134.082874357442
 30
0.0
 10
273.5836875572422
 20
134.081784931448
 30
0.0
 10
273.5877347002042
 20
134.0806194474207
 30
0.0
 10
273.5917818431681
 20
134.0794539633898
 30
0.0
 10
273.5957836999569
 20
134.0782090489665
 30
0.0
 10
273.5997402705707
 20
134.0768847041472
 30
0.0
 10
273.6036968411845
 20
134.0755603593279
 30
0.0
 10
273.6076072304022
 20
134.074153210815
 30
0.0
 10
273.6114714382274
 20
134.0726632586047
 30
0.0
 10
273.6153356460527
 20
134.0711733063945
 30
0.0
 10
273.6191527694646
 20
134.0695971789082
 30
0.0
 10
273.622922808463
 20
134.0679348761478
 30
0.0
 10
273.6266928474597
 20
134.0662725733873
 30
0.0
 10
273.6304148950003
 20
134.0645207236502
 30
0.0
 10
273.634088951083
 20
134.0626793269366
 30
0.0
 10
273.6377630071656
 20
134.0608379302248
 30
0.0
 10
273.6413881450644
 20
134.0589036331257
 30
0.0
 10
273.6449643647793
 20
134.0568764356376
 30
0.0
 10
273.6485405844942
 20
134.0548492381531
 30
0.0
 10
273.6520670079662
 20
134.0527257405974
 30
0.0
 10
273.6555436351955
 20
134.0505059429761
 30
0.0
 10
273.6590202624248
 20
134.0482861453529
 30
0.0
 10
273.6624461196316
 20
134.0459667451196
 30
0.0
 10
273.665821206816
 20
134.0435477422798
 30
0.0
 10
273.6691962940022
 20
134.0411287394381
 30
0.0
 10
273.672519675054
 20
134.0386067949657
 30
0.0
 10
273.675791349975
 20
134.0359819088644
 30
0.0
 10
273.6790630248943
 20
134.0333570227612
 30
0.0
 10
273.6822820982307
 20
134.0306258599248
 30
0.0
 10
273.685448569986
 20
134.0277884203533
 30
0.0
 10
273.6886150417413
 20
134.0249509807818
 30
0.0
 10
273.6917279929894
 20
134.0220039466749
 30
0.0
 10
273.6947874237303
 20
134.0189473180326
 30
0.0
 10
273.6978468544712
 20
134.0158906893903
 30
0.0
 10
273.7008518564508
 20
134.0127211538711
 30
0.0
 10
273.7038024296726
 20
134.0094387114732
 30
0.0
 10
273.7067530028926
 20
134.0061562690753
 30
0.0
 10
273.70964824767
 20
134.0027576112825
 30
0.0
 10
273.7124881640084
 20
133.999242738093
 30
0.0
 10
273.7153280803468
 20
133.9957278649035
 30
0.0
 10
273.718464984533
 20
133.9916058285653
 30
0.0
 10
273.7218988765671
 20
133.9868766290783
 30
0.0
 10
273.725332768603
 20
133.9821474295895
 30
0.0
 10
273.7286348248545
 20
133.9772237595825
 30
0.0
 10
273.7318050453214
 20
133.9721056190537
 30
0.0
 10
273.7349752657883
 20
133.966987478525
 30
0.0
 10
273.7377797319259
 20
133.9622381534918
 30
0.0
 10
273.7402184437342
 20
133.9578576439544
 30
0.0
 10
273.7426571555407
 20
133.9534771344151
 30
0.0
 10
273.74503658711
 20
133.9489655013203
 30
0.0
 10
273.7473567384404
 20
133.9443227446681
 30
0.0
 10
273.7496768897709
 20
133.939679988016
 30
0.0
 10
273.7519368961603
 20
133.9349027826065
 30
0.0
 10
273.7541367576123
 20
133.9299911284433
 30
0.0
 10
273.7563366190625
 20
133.9250794742802
 30
0.0
 10
273.7584754721938
 20
133.9200300408029
 30
0.0
 10
273.7605533170081
 20
133.9148428280114
 30
0.0
 10
273.7626311618224
 20
133.9096556152217
 30
0.0
 10
273.7646471350072
 20
133.904327287697
 30
0.0
 10
273.7666012365662
 20
133.8988578454391
 30
0.0
 10
273.7685553381252
 20
133.893388403183
 30
0.0
 10
273.770446703893
 20
133.8877745066038
 30
0.0
 10
273.772275333873
 20
133.882016155705
 30
0.0
 10
273.7741039638549
 20
133.8762578048063
 30
0.0
 10
273.7758689924212
 20
133.8703516566001
 30
0.0
 10
273.7775704195774
 20
133.864297711083
 30
0.0
 10
273.7792718467336
 20
133.8582437655659
 30
0.0
 10
273.7809088050453
 20
133.8520386771051
 30
0.0
 10
273.7824812945127
 20
133.8456824457007
 30
0.0
 10
273.7840537839802
 20
133.8393262142945
 30
0.0
 10
273.7855609352209
 20
133.8328154923438
 30
0.0
 10
273.7870027482313
 20
133.826150279845
 30
0.0
 10
273.7884445612417
 20
133.819485067348
 30
0.0
 10
273.7898201646931
 20
133.8126620153234
 30
0.0
 10
273.7911295585873
 20
133.8056811237693
 30
0.0
 10
273.7924389524815
 20
133.798700232217
 30
0.0
 10
273.793681263629
 20
133.7915581512516
 30
0.0
 10
273.7948564920261
 20
133.7842548808748
 30
0.0
 10
273.7960317204251
 20
133.7769516104999
 30
0.0
 10
273.7971389912545
 20
133.7694838003026
 30
0.0
 10
273.7981783045161
 20
133.761851450281
 30
0.0
 10
273.7992176177759
 20
133.7542191002612
 30
0.0
 10
273.8001880968968
 20
133.7464188597841
 30
0.0
 10
273.801089741879
 20
133.7384507288516
 30
0.0
 10
273.8019913868611
 20
133.7304825979208
 30
0.0
 10
273.8028233208734
 20
133.722343225807
 30
0.0
 10
273.8035855439175
 20
133.7140326125081
 30
0.0
 10
273.8043477669635
 20
133.7057219992111
 30
0.0
 10
273.8050393965987
 20
133.6972367944035
 30
0.0
 10
273.8056604328249
 20
133.688576998089
 30
0.0
 10
273.8062814690511
 20
133.6799172017745
 30
0.0
 10
273.8068310476392
 20
133.6710794626579
 30
0.0
 10
273.8073091685874
 20
133.6620637807373
 30
0.0
 10
273.8077872895356
 20
133.6530480988185
 30
0.0
 10
273.8082358120591
 20
133.6426215820847
 30
0.0
 10
273.8086547361563
 20
133.6307842305341
 30
0.0
 10
273.8090736602535
 20
133.6189468789835
 30
0.0
 10
273.8093888445328
 20
133.6033030764429
 30
0.0
 10
273.8096002889961
 20
133.5838528229124
 30
0.0
 10
273.8115094576515
 20
133.5743765122515
 30
0.0
 10
273.8133452513412
 20
133.5656066905794
 30
0.0
 10
273.8151076700688
 20
133.5575433578906
 30
0.0
 10
273.8168700887964
 20
133.5494800252036
 30
0.0
 10
273.8188314034178
 20
133.5410293809091
 30
0.0
 10
273.8209916139367
 20
133.5321914250053
 30
0.0
 10
273.8231518244556
 20
133.5233534691033
 30
0.0
 10
273.825388135012
 20
133.5147235192344
 30
0.0
 10
273.8277005456075
 20
133.5063015754021
 30
0.0
 10
273.8300129562012
 20
133.4978796315699
 30
0.0
 10
273.8324097992772
 20
133.4896606878865
 30
0.0
 10
273.8348910748355
 20
133.4816447443518
 30
0.0
 10
273.8373723503937
 20
133.4736288008171
 30
0.0
 10
273.8399463778551
 20
133.4658108496078
 30
0.0
 10
273.842613157216
 20
133.4581908907257
 30
0.0
 10
273.8452799365787
 20
133.4505709318418
 30
0.0
 10
273.8480478043712
 20
133.4431439725576
 30
0.0
 10
273.8509167605934
 20
133.4359100128731
 30
0.0
 10
273.8537857168176
 20
133.4286760531868
 30
0.0
 10
273.856764112903
 20
133.4216301237775
 30
0.0
 10
273.8598519488514
 20
133.4147722246471
 30
0.0
 10
273.8629397847999
 20
133.4079143255148
 30
0.0
 10
273.8661454203666
 20
133.4012395196059
 30
0.0
 10
273.8694688555552
 20
133.3947478069185
 30
0.0
 10
273.8727922907419
 20
133.3882560942329
 30
0.0
 10
273.8762418835959
 20
133.3819425769434
 30
0.0
 10
273.8798176341152
 20
133.3758072550481
 30
0.0
 10
273.8833933846345
 20
133.3696719331528
 30
0.0
 10
273.8871036283636
 20
133.3637099518164
 30
0.0
 10
273.8909483653006
 20
133.3579213110406
 30
0.0
 10
273.8947931022358
 20
133.352132670263
 30
0.0
 10
273.898780646412
 20
133.3465125488892
 30
0.0
 10
273.9029109978237
 20
133.3410609469174
 30
0.0
 10
273.9070413492354
 20
133.3356093449456
 30
0.0
 10
273.9113227037324
 20
133.3303214783918
 30
0.0
 10
273.9157550613163
 20
133.3251973472543
 30
0.0
 10
273.9201874189002
 20
133.3200732161185
 30
0.0
 10
273.9247791700218
 20
133.3151079805211
 30
0.0
 10
273.929530314681
 20
133.3103016404675
 30
0.0
 10
273.9342814593401
 20
133.3054953004139
 30
0.0
 10
273.9391998904302
 20
133.3008431041962
 30
0.0
 10
273.9442856079495
 20
133.2963450518164
 30
0.0
 10
273.9493713254688
 20
133.2918469994365
 30
0.0
 10
273.954632423005
 20
133.2874982340054
 30
0.0
 10
273.9600689005602
 20
133.2832987555212
 30
0.0
 10
273.9655053781135
 20
133.2790992770387
 30
0.0
 10
273.9711253342029
 20
133.2750440968011
 30
0.0
 10
273.9769287688286
 20
133.2711332148083
 30
0.0
 10
273.9827322034543
 20
133.2672223328172
 30
0.0
 10
273.9879365441047
 20
133.2639142571024
 30
0.0
 10
273.9925417907816
 20
133.261208987662
 30
0.0
 10
273.9971470374567
 20
133.2585037182216
 30
0.0
 10
274.0010438362897
 20
133.256277175562
 30
0.0
 10
274.0042321872788
 20
133.2545293596813
 30
0.0
 10
274.0074205382661
 20
133.2527815438025
 30
0.0
 10
274.0115038669428
 20
133.2506360103434
 30
0.0
 10
274.0164821733051
 20
133.248092759306
 30
0.0
 10
274.0214604796693
 20
133.2455495082667
 30
0.0
 10
274.0274502725606
 20
133.2427251730132
 30
0.0
 10
274.034451551981
 20
133.2396197535417
 30
0.0
 10
274.0414528314013
 20
133.2365143340703
 30
0.0
 10
274.0486700263154
 20
133.2335330156147
 30
0.0
 10
274.0561031367251
 20
133.2306757981732
 30
0.0
 10
274.0635362471348
 20
133.2278185807336
 30
0.0
 10
274.0711934736937
 20
133.2250803713123
 30
0.0
 10
274.0790748164
 20
133.2224611699075
 30
0.0
 10
274.0869561591098
 20
133.2198419685028
 30
0.0
 10
274.0950698480247
 20
133.2173366891693
 30
0.0
 10
274.103415883148
 20
133.2149453319052
 30
0.0
 10
274.1117619182696
 20
133.2125539746412
 30
0.0
 10
274.1203485533333
 20
133.2102714752582
 30
0.0
 10
274.1291757883337
 20
133.2080978337599
 30
0.0
 10
274.138003023334
 20
133.2059241922616
 30
0.0
 10
274.1470791174288
 20
133.2038543291164
 30
0.0
 10
274.1564040706144
 20
133.2018882443317
 30
0.0
 10
274.1657290237981
 20
133.1999221595451
 30
0.0
 10
274.1753111394082
 20
133.1980549245545
 30
0.0
 10
274.1851504174428
 20
133.1962865393616
 30
0.0
 10
274.1949896954775
 20
133.1945181541687
 30
0.0
 10
274.2044184709539
 20
133.1929461044037
 30
0.0
 10
274.2134367438739
 20
133.1915703900649
 30
0.0
 10
274.2224550167921
 20
133.1901946757261
 30
0.0
 10
274.2309324675953
 20
133.1889732060172
 30
0.0
 10
274.2388690962816
 20
133.1879059809362
 30
0.0
 10
274.2402161386599
 20
133.1877266964384
 30
0.0
 10
274.24156318104
 20
133.1875474119406
 30
0.0
 10
274.2429102234164
 20
133.1873681274446
 30
0.0
  0
SPLINE
  5
98
330
70
100
AcDbEntity
  8
sakuzu
 62
     5
420
      255
370
    25
100
AcDbSpline
210
0.0
220
0.0
230
1.0
 70
     8
 71
     3
 72
   188
 73
   184
 74
     0
 42
0.0000000001
 43
0.0000000001
 40
0.0
 40
0.0
 40
0.0
 40
0.0
 40
1.0
 40
1.0
 40
1.0
 40
2.0
 40
2.0
 40
2.0
 40
3.0
 40
3.0
 40
3.0
 40
4.0
 40
4.0
 40
4.0
 40
5.0
 40
5.0
 40
5.0
 40
6.0
 40
6.0
 40
6.0
 40
7.0
 40
7.0
 40
7.0
 40
8.0
 40
8.0
 40
8.0
 40
9.0
 40
9.0
 40
9.0
 40
10.0
 40
10.0
 40
10.0
 40
11.0
 40
11.0
 40
11.0
 40
12.0
 40
12.0
 40
12.0
 40
13.0
 40
13.0
 40
13.0
 40
14.0
 40
14.0
 40
14.0
 40
15.0
 40
15.0
 40
15.0
 40
16.0
 40
16.0
 40
16.0
 40
17.0
 40
17.0
 40
17.0
 40
18.0
 40
18.0
 40
18.0
 40
19.0
 40
19.0
 40
19.0
 40
20.0
 40
20.0
 40
20.0
 40
21.0
 40
21.0
 40
21.0
 40
22.0
 40
22.0
 40
22.0
 40
23.0
 40
23.0
 40
23.0
 40
24.0
 40
24.0
 40
24.0
 40
25.0
 40
25.0
 40
25.0
 40
26.0
 40
26.0
 40
26.0
 40
27.0
 40
27.0
 40
27.0
 40
28.0
 40
28.0
 40
28.0
 40
29.0
 40
29.0
 40
29.0
 40
30.0
 40
30.0
 40
30.0
 40
31.0
 40
31.0
 40
31.0
 40
32.0
 40
32.0
 40
32.0
 40
33.0
 40
33.0
 40
33.0
 40
34.0
 40
34.0
 40
34.0
 40
35.0
 40
35.0
 40
35.0
 40
36.0
 40
36.0
 40
36.0
 40
37.0
 40
37.0
 40
37.0
 40
38.0
 40
38.0
 40
38.0
 40
39.0
 40
39.0
 40
39.0
 40
40.0
 40
40.0
 40
40.0
 40
41.0
 40
41.0
 40
41.0
 40
42.0
 40
42.0
 40
42.0
 40
43.0
 40
43.0
 40
43.0
 40
44.0
 40
44.0
 40
44.0
 40
45.0
 40
45.0
 40
45.0
 40
46.0
 40
46.0
 40
46.0
 40
47.0
 40
47.0
 40
47.0
 40
48.0
 40
48.0
 40
48.0
 40
49.0
 40
49.0
 40
49.0
 40
50.0
 40
50.0
 40
50.0
 40
51.0
 40
51.0
 40
51.0
 40
52.0
 40
52.0
 40
52.0
 40
53.0
 40
53.0
 40
53.0
 40
54.0
 40
54.0
 40
54.0
 40
55.0
 40
55.0
 40
55.0
 40
56.0
 40
56.0
 40
56.0
 40
57.0
 40
57.0
 40
57.0
 40
58.0
 40
58.0
 40
58.0
 40
59.0
 40
59.0
 40
59.0
 40
60.0
 40
60.0
 40
60.0
 40
61.0
 40
61.0
 40
61.0
 40
61.0
 10
273.6410345594722
 20
134.5588405261169
 30
0.0
 10
273.6520975232815
 20
134.560018715767
 30
0.0
 10
273.662439013784
 20
134.5609922211788
 30
0.0
 10
273.6720590309815
 20
134.5617610423542
 30
0.0
 10
273.6816790481789
 20
134.5625298635295
 30
0.0
 10
273.6905827335777
 20
134.5630871476496
 30
0.0
 10
273.6987700871796
 20
134.5634328947126
 30
0.0
 10
273.7069574407833
 20
134.5637786417755
 30
0.0
 10
273.7150858238983
 20
134.5640418303501
 30
0.0
 10
273.7231552365265
 20
134.5642224604344
 30
0.0
 10
273.7312246491529
 20
134.5644030905205
 30
0.0
 10
273.7392633424351
 20
134.5644121813493
 30
0.0
 10
273.7472713163715
 20
134.5642497329245
 30
0.0
 10
273.7552792903061
 20
134.5640872844978
 30
0.0
 10
273.7632248579539
 20
134.5638372688554
 30
0.0
 10
273.7711080193167
 20
134.5634996859953
 30
0.0
 10
273.7789911806794
 20
134.5631621031352
 30
0.0
 10
273.7868326250246
 20
134.562637241188
 30
0.0
 10
273.794632352352
 20
134.5619251001481
 30
0.0
 10
273.8024320796812
 20
134.5612129591081
 30
0.0
 10
273.808897255125
 20
134.5605561339471
 30
0.0
 10
273.8140278786832
 20
134.5599546246631
 30
0.0
 10
273.8191585022396
 20
134.559353115379
 30
0.0
 10
273.8255217726364
 20
134.5585055303891
 30
0.0
 10
273.8331176898737
 20
134.5574118696913
 30
0.0
 10
273.8407136071109
 20
134.5563182089936
 30
0.0
 10
273.8494834347784
 20
134.5547688754377
 30
0.0
 10
273.859427172878
 20
134.5527638690237
 30
0.0
 10
273.8693709109775
 20
134.5507588626096
 30
0.0
 10
273.8791974502619
 20
134.5484701857567
 30
0.0
 10
273.8889067907312
 20
134.5458978384667
 30
0.0
 10
273.8986161312005
 20
134.5433254911768
 30
0.0
 10
273.9082002033938
 20
134.540457057572
 30
0.0
 10
273.9176590073112
 20
134.5372925376541
 30
0.0
 10
273.9271178112285
 20
134.5341280177363
 30
0.0
 10
273.9364431469748
 20
134.5306550464101
 30
0.0
 10
273.9456350145538
 20
134.5268736236739
 30
0.0
 10
273.9548268821327
 20
134.5230922009395
 30
0.0
 10
273.9638773144143
 20
134.5189897937071
 30
0.0
 10
273.9727863113985
 20
134.5145664019783
 30
0.0
 10
273.9816953083809
 20
134.5101430102495
 30
0.0
 10
273.9893703493544
 20
134.5060273012659
 30
0.0
 10
273.9958114343153
 20
134.5022192750311
 30
0.0
 10
274.0022525192744
 20
134.4984112487927
 30
0.0
 10
274.0086503706079
 20
134.4944652456652
 30
0.0
 10
274.0150049883123
 20
134.490381265643
 30
0.0
 10
274.0213596060148
 20
134.4862972856208
 30
0.0
 10
274.0275714254967
 20
134.4819651950292
 30
0.0
 10
274.0336404467525
 20
134.4773849938719
 30
0.0
 10
274.0397094680102
 20
134.4728047927128
 30
0.0
 10
274.0457420704552
 20
134.468067875905
 30
0.0
 10
274.0517382540838
 20
134.4631742434485
 30
0.0
 10
274.0577344377125
 20
134.458280610992
 30
0.0
 10
274.0635678429862
 20
134.4531389461681
 30
0.0
 10
274.069238469905
 20
134.4477492489823
 30
0.0
 10
274.0749090968238
 20
134.4423595517964
 30
0.0
 10
274.0805485268374
 20
134.4367908635468
 30
0.0
 10
274.086156759944
 20
134.4310431842368
 30
0.0
 10
274.0917649930525
 20
134.4252955049251
 30
0.0
 10
274.0971927063274
 20
134.419303175071
 30
0.0
 10
274.1024398997688
 20
134.4130661946765
 30
0.0
 10
274.1076870932102
 20
134.4068292142819
 30
0.0
 10
274.1129056958271
 20
134.4003882150919
 30
0.0
 10
274.1180957076194
 20
134.3937431971062
 30
0.0
 10
274.1232857194118
 20
134.3870981791187
 30
0.0
 10
274.1282805548326
 20
134.3802141567685
 30
0.0
 10
274.1330802138837
 20
134.3730911300536
 30
0.0
 10
274.1378798729311
 20
134.3659681033368
 30
0.0
 10
274.1418439354293
 20
134.3599069260271
 30
0.0
 10
274.1449724013764
 20
134.3549075981209
 30
0.0
 10
274.1512293332726
 20
134.3449089423102
 30
0.0
 10
274.1572760397103
 20
134.3344869432931
 30
0.0
 10
274.1631125206895
 20
134.3236416010695
 30
0.0
 10
274.1689490016706
 20
134.312796258846
 30
0.0
 10
274.1745670048786
 20
134.3015150107676
 30
0.0
 10
274.1799665303115
 20
134.2897978568344
 30
0.0
 10
274.1853660557445
 20
134.2780807028994
 30
0.0
 10
274.1905391720611
 20
134.265915544267
 30
0.0
 10
274.1954858792578
 20
134.2533023809374
 30
0.0
 10
274.2004325864546
 20
134.2406892176059
 30
0.0
 10
274.2051448891307
 20
134.2276158380573
 30
0.0
 10
274.2096227872826
 20
134.2140822422898
 30
0.0
 10
274.2141006854327
 20
134.2005486465223
 30
0.0
 10
274.2183361936004
 20
134.1865426294171
 30
0.0
 10
274.2223293117786
 20
134.1720641909742
 30
0.0
 10
274.2263224299586
 20
134.1575857525331
 30
0.0
 10
274.2300651677051
 20
134.1426226767726
 30
0.0
 10
274.2335575250163
 20
134.1271749636926
 30
0.0
 10
274.2370498823275
 20
134.1117272506144
 30
0.0
 10
274.2402836502388
 20
134.0957823508343
 30
0.0
 10
274.2432588287484
 20
134.0793402643539
 30
0.0
 10
274.2447464180041
 20
134.0711192211165
 30
0.0
 10
274.2461677796327
 20
134.0627714521397
 30
0.0
 10
274.2475229136326
 20
134.0542969574308
 30
0.0
 10
274.2488780476324
 20
134.04582246272
 30
0.0
 10
274.250458215587
 20
134.0350955457215
 30
0.0
 10
274.2522634174966
 20
134.0221162064372
 30
0.0
 10
274.2520848546046
 20
134.0163707479041
 30
0.0
 10
274.2519647705267
 20
134.0106673464088
 30
0.0
 10
274.2519031652591
 20
134.0050060019475
 30
0.0
 10
274.2518415599916
 20
133.9993446574863
 30
0.0
 10
274.2519248641056
 20
133.9928134007005
 30
0.0
 10
274.2521530776012
 20
133.9854122315901
 30
0.0
 10
274.2523812910986
 20
133.9780110624779
 30
0.0
 10
274.252769897128
 20
133.9707103004857
 30
0.0
 10
274.2533188956914
 20
133.9635099456154
 30
0.0
 10
274.2538678942529
 20
133.9563095907433
 30
0.0
 10
274.2545820190953
 20
133.9492111739819
 30
0.0
 10
274.2554612702134
 20
133.9422146953348
 30
0.0
 10
274.256340521335
 20
133.9352182166858
 30
0.0
 10
274.2573896453087
 20
133.9283252209188
 30
0.0
 10
274.2586086421361
 20
133.9215357080356
 30
0.0
 10
274.2598276389653
 20
133.9147461951524
 30
0.0
 10
274.2612212664099
 20
133.9080617292165
 30
0.0
 10
274.2627895244695
 20
133.9014823102298
 30
0.0
 10
274.2643577825311
 20
133.8949028912429
 30
0.0
 10
274.2661054325126
 20
133.8884301112648
 30
0.0
 10
274.2680324744124
 20
133.8820639702935
 30
0.0
 10
274.2699595163121
 20
133.875697829324
 30
0.0
 10
274.2720707155586
 20
133.8694399403193
 30
0.0
 10
274.2743660721535
 20
133.8632903032831
 30
0.0
 10
274.2766614287484
 20
133.8571406662449
 30
0.0
 10
274.2791456639498
 20
133.8511009625526
 30
0.0
 10
274.2818187777593
 20
133.8451711922098
 30
0.0
 10
274.2844918915671
 20
133.8392414218651
 30
0.0
 10
274.2873587009817
 20
133.8334231402987
 30
0.0
 10
274.2904192060032
 20
133.8277163475068
 30
0.0
 10
274.2934797110247
 20
133.8220095547149
 30
0.0
 10
274.2967385101638
 20
133.8164160672459
 30
0.0
 10
274.3001956034186
 20
133.8109358851016
 30
0.0
 10
274.3036526966753
 20
133.8054557029554
 30
0.0
 10
274.3073127029165
 20
133.8000906018424
 30
0.0
 10
274.3111756221424
 20
133.7948405817624
 30
0.0
 10
274.3150385413683
 20
133.7895905616824
 30
0.0
 10
274.3191089861848
 20
133.7844572095382
 30
0.0
 10
274.323386956592
 20
133.779440525328
 30
0.0
 10
274.3276649269992
 20
133.7744238411178
 30
0.0
 10
274.332154980144
 20
133.7695254896771
 30
0.0
 10
274.3368571160245
 20
133.7647454710058
 30
0.0
 10
274.3415592519068
 20
133.7599654523346
 30
0.0
 10
274.3464780074191
 20
133.7553053847023
 30
0.0
 10
274.3516133825633
 20
133.7507652681106
 30
0.0
 10
274.3567487577057
 20
133.7462251515189
 30
0.0
 10
274.361391741586
 20
133.7423555948735
 30
0.0
 10
274.3655423342061
 20
133.7391565981779
 30
0.0
 10
274.3696929268244
 20
133.7359576014805
 30
0.0
 10
274.3732171701231
 20
133.733314960371
 30
0.0
 10
274.3761150641021
 20
133.7312286748492
 30
0.0
 10
274.3790129580812
 20
133.7291423893257
 30
0.0
 10
274.3827408478501
 20
133.726567808093
 30
0.0
 10
274.3872987334053
 20
133.7235049311512
 30
0.0
 10
274.3918566189623
 20
133.7204420542057
 30
0.0
 10
274.3973803107838
 20
133.7170096983409
 30
0.0
 10
274.4038698088716
 20
133.7132078635532
 30
0.0
 10
274.4103593069576
 20
133.7094060287654
 30
0.0
 10
274.4170836602771
 20
133.7057302897119
 30
0.0
 10
274.4240428688281
 20
133.7021806463926
 30
0.0
 10
274.4310020773792
 20
133.6986310030734
 30
0.0
 10
274.4382007137247
 20
133.6952089216847
 30
0.0
 10
274.4456387778646
 20
133.6919144022267
 30
0.0
 10
274.4530768420045
 20
133.6886198827706
 30
0.0
 10
274.4607589596344
 20
133.6854544046909
 30
0.0
 10
274.4686851307542
 20
133.6824179679843
 30
0.0
 10
274.4766113018759
 20
133.6793815312794
 30
0.0
 10
274.4847861708349
 20
133.6764756167431
 30
0.0
 10
274.4932097376277
 20
133.6737002243717
 30
0.0
 10
274.5016333044223
 20
133.6709248320003
 30
0.0
 10
274.5103102316243
 20
133.6682814566975
 30
0.0
 10
274.5192405192374
 20
133.6657700984615
 30
0.0
 10
274.5281708068505
 20
133.6632587402237
 30
0.0
 10
274.537359115724
 20
133.6608808714245
 30
0.0
 10
274.5468054458579
 20
133.6586364920586
 30
0.0
 10
274.5562517759918
 20
133.6563921126944
 30
0.0
 10
274.5659608500955
 20
133.6542828374277
 30
0.0
 10
274.5759326681655
 20
133.6523086662564
 30
0.0
 10
274.5859044862373
 20
133.6503344950852
 30
0.0
 10
274.595460186607
 20
133.6486070777973
 30
0.0
 10
274.6045997692745
 20
133.6471264143892
 30
0.0
 10
274.6137393519402
 20
133.6456457509812
 30
0.0
 10
274.6223306973389
 20
133.6443538388866
 30
0.0
 10
274.6303738054703
 20
133.6432506781038
 30
0.0
 10
274.6317378238837
 20
133.6430662465336
 30
0.0
 10
274.6331018422988
 20
133.6428818149634
 30
0.0
 10
274.6344658607122
 20
133.6426973833932
 30
0.0
  0
SPLINE
  5
99
330
70
100
AcDbEntity
  8
sakuzu
 62
     5
420
      255
370
    25
100
AcDbSpline
210
0.0
220
0.0
230
1.0
 70
     8
 71
     3
 72
   194
 73
   190
 74
     0
 42
0.0000000001
 43
0.0000000001
 40
0.0
 40
0.0
 40
0.0
 40
0.0
 40
1.0
 40
1.0
 40
1.0
 40
2.0
 40
2.0
 40
2.0
 40
3.0
 40
3.0
 40
3.0
 40
4.0
 40
4.0
 40
4.0
 40
5.0
 40
5.0
 40
5.0
 40
6.0
 40
6.0
 40
6.0
 40
7.0
 40
7.0
 40
7.0
 40
8.0
 40
8.0
 40
8.0
 40
9.0
 40
9.0
 40
9.0
 40
10.0
 40
10.0
 40
10.0
 40
11.0
 40
11.0
 40
11.0
 40
12.0
 40
12.0
 40
12.0
 40
13.0
 40
13.0
 40
13.0
 40
14.0
 40
14.0
 40
14.0
 40
15.0
 40
15.0
 40
15.0
 40
16.0
 40
16.0
 40
16.0
 40
17.0
 40
17.0
 40
17.0
 40
18.0
 40
18.0
 40
18.0
 40
19.0
 40
19.0
 40
19.0
 40
20.0
 40
20.0
 40
20.0
 40
21.0
 40
21.0
 40
21.0
 40
22.0
 40
22.0
 40
22.0
 40
23.0
 40
23.0
 40
23.0
 40
24.0
 40
24.0
 40
24.0
 40
25.0
 40
25.0
 40
25.0
 40
26.0
 40
26.0
 40
26.0
 40
27.0
 40
27.0
 40
27.0
 40
28.0
 40
28.0
 40
28.0
 40
29.0
 40
29.0
 40
29.0
 40
30.0
 40
30.0
 40
30.0
 40
31.0
 40
31.0
 40
31.0
 40
32.0
 40
32.0
 40
32.0
 40
33.0
 40
33.0
 40
33.0
 40
34.0
 40
34.0
 40
34.0
 40
35.0
 40
35.0
 40
35.0
 40
36.0
 40
36.0
 40
36.0
 40
37.0
 40
37.0
 40
37.0
 40
38.0
 40
38.0
 40
38.0
 40
39.0
 40
39.0
 40
39.0
 40
40.0
 40
40.0
 40
40.0
 40
41.0
 40
41.0
 40
41.0
 40
42.0
 40
42.0
 40
42.0
 40
43.0
 40
43.0
 40
43.0
 40
44.0
 40
44.0
 40
44.0
 40
45.0
 40
45.0
 40
45.0
 40
46.0
 40
46.0
 40
46.0
 40
47.0
 40
47.0
 40
47.0
 40
48.0
 40
48.0
 40
48.0
 40
49.0
 40
49.0
 40
49.0
 40
50.0
 40
50.0
 40
50.0
 40
51.0
 40
51.0
 40
51.0
 40
52.0
 40
52.0
 40
52.0
 40
53.0
 40
53.0
 40
53.0
 40
54.0
 40
54.0
 40
54.0
 40
55.0
 40
55.0
 40
55.0
 40
56.0
 40
56.0
 40
56.0
 40
57.0
 40
57.0
 40
57.0
 40
58.0
 40
58.0
 40
58.0
 40
59.0
 40
59.0
 40
59.0
 40
60.0
 40
60.0
 40
60.0
 40
61.0
 40
61.0
 40
61.0
 40
62.0
 40
62.0
 40
62.0
 40
63.0
 40
63.0
 40
63.0
 40
63.0
 10
269.2676872412576
 20
130.4481201684811
 30
0.0
 10
269.2676872412576
 20
130.3226431124822
 30
0.0
 10
269.2676872412576
 20
130.1971660564832
 30
0.0
 10
269.2676872412576
 20
130.0716890004823
 30
0.0
 10
269.2794671373686
 20
130.0831349238615
 30
0.0
 10
269.2914444961516
 20
130.0942072328325
 30
0.0
 10
269.3036193176067
 20
130.1049059273937
 30
0.0
 10
269.3249653500079
 20
130.1236638764621
 30
0.0
 10
269.3468621426746
 20
130.1413468823721
 30
0.0
 10
269.3693096956031
 20
130.1579549451271
 30
0.0
 10
269.3917572485298
 20
130.1745630078821
 30
0.0
 10
269.4146995672654
 20
130.1901703581952
 30
0.0
 10
269.4381366518064
 20
130.20477699607
 30
0.0
 10
269.4615737363474
 20
130.2193836339447
 30
0.0
 10
269.4854500284946
 20
130.2330642081215
 30
0.0
 10
269.5097655282461
 20
130.2458187186003
 30
0.0
 10
269.5340810279995
 20
130.258573229079
 30
0.0
 10
269.558780677995
 20
130.2704764977279
 30
0.0
 10
269.5838644782361
 20
130.2815285245451
 30
0.0
 10
269.6089482784773
 20
130.2925805513623
 30
0.0
 10
269.6343616241138
 20
130.3028561250267
 30
0.0
 10
269.660104515151
 20
130.3123552455327
 30
0.0
 10
269.6858474061865
 20
130.3218543660387
 30
0.0
 10
269.7118655805061
 20
130.3306516566353
 30
0.0
 10
269.7381590381119
 20
130.3387471173191
 30
0.0
 10
269.7644524957159
 20
130.3468425780029
 30
0.0
 10
269.7909671949092
 20
130.354310608156
 30
0.0
 10
269.81770313569
 20
130.3611512077805
 30
0.0
 10
269.8444390764726
 20
130.3679918074031
 30
0.0
 10
269.8713423331701
 20
130.3742791473141
 30
0.0
 10
269.8984129057808
 20
130.38001322751
 30
0.0
 10
269.9254834783951
 20
130.385747307706
 30
0.0
 10
269.9526674824174
 20
130.391002096374
 30
0.0
 10
269.9799649178512
 20
130.3957775935141
 30
0.0
 10
270.0072623532833
 20
130.4005530906524
 30
0.0
 10
270.0346193315581
 20
130.4049230945438
 30
0.0
 10
270.0620358526703
 20
130.4088876051828
 30
0.0
 10
270.0894523737861
 20
130.4128521158236
 30
0.0
 10
270.1168745180766
 20
130.4164848408927
 30
0.0
 10
270.1443022855456
 20
130.4197857803865
 30
0.0
 10
270.1717300530163
 20
130.4230867198803
 30
0.0
 10
270.1991095320718
 20
130.4261291141629
 30
0.0
 10
270.2264407227121
 20
130.4289129632343
 30
0.0
 10
270.2537719133525
 20
130.4316968123057
 30
0.0
 10
270.2810008365486
 20
130.4342957437093
 30
0.0
 10
270.3081274922988
 20
130.4367097574413
 30
0.0
 10
270.335254148049
 20
130.439123771177
 30
0.0
 10
270.3622244220241
 20
130.4414270577381
 30
0.0
 10
270.3890383142243
 20
130.44361961713
 30
0.0
 10
270.4158522064245
 20
130.4458121765219
 30
0.0
 10
270.4424558672599
 20
130.4479667105661
 30
0.0
 10
270.4688492967325
 20
130.4500832192643
 30
0.0
 10
270.4952427262051
 20
130.4521997279626
 30
0.0
 10
270.5213719427411
 20
130.4543517653892
 30
0.0
 10
270.5472369463387
 20
130.4565393315388
 30
0.0
 10
270.5731019499363
 20
130.458726897692
 30
0.0
 10
270.5986488646631
 20
130.4610233263029
 30
0.0
 10
270.6238776905193
 20
130.4634286173732
 30
0.0
 10
270.6491065163736
 20
130.4658339084453
 30
0.0
 10
270.6739634755395
 20
130.468421459962
 30
0.0
 10
270.6984485680132
 20
130.4711912719249
 30
0.0
 10
270.7229336604887
 20
130.4739610838896
 30
0.0
 10
270.7469932684817
 20
130.4769865991984
 30
0.0
 10
270.7706273919939
 20
130.4802678178512
 30
0.0
 10
270.7942615155062
 20
130.4835490365058
 30
0.0
 10
270.8174167494472
 20
130.4871595378481
 30
0.0
 10
270.8400930938205
 20
130.4910993218782
 30
0.0
 10
270.8627694381903
 20
130.4950391059083
 30
0.0
 10
270.8849137475736
 20
130.4993820182335
 30
0.0
 10
270.9065260219686
 20
130.5041280588539
 30
0.0
 10
270.9281382963636
 20
130.5088740994761
 30
0.0
 10
270.9491656486262
 20
130.5140975977956
 30
0.0
 10
270.9696080787562
 20
130.5197985538161
 30
0.0
 10
270.9900505088863
 20
130.5254995098366
 30
0.0
 10
271.0098552562995
 20
130.5317530499869
 30
0.0
 10
271.0290223209959
 20
130.538559174267
 30
0.0
 10
271.0481893856922
 20
130.5453652985488
 30
0.0
 10
271.0666657291004
 20
130.5528002870305
 30
0.0
 10
271.0844513512202
 20
130.560864139712
 30
0.0
 10
271.1022369733382
 20
130.5689279923917
 30
0.0
 10
271.1192777148572
 20
130.5776983154264
 30
0.0
 10
271.1355735757734
 20
130.5871751088107
 30
0.0
 10
271.1518694366896
 20
130.5966519021986
 30
0.0
 10
271.1655478301436
 20
130.605549540096
 30
0.0
 10
271.1766087561391
 20
130.6138680225067
 30
0.0
 10
271.187669682131
 20
130.6221865049192
 30
0.0
 10
271.1957891239836
 20
130.6285733026179
 30
0.0
 10
271.2009670816933
 20
130.6330284156029
 30
0.0
 10
271.2061450394049
 20
130.6374835285878
 30
0.0
 10
271.2104041103176
 20
130.6412493563675
 30
0.0
 10
271.2137442944295
 20
130.6443258989384
 30
0.0
 10
271.242973668117
 20
130.662842591475
 30
0.0
 10
271.267238500308
 20
130.6782876655925
 30
0.0
 10
271.2865387910024
 20
130.6906611212907
 30
0.0
 10
271.3058390816986
 20
130.703034576989
 30
0.0
 10
271.3250066486216
 20
130.7154340465949
 30
0.0
 10
271.3440414917677
 20
130.7278595301049
 30
0.0
 10
271.3630763349174
 20
130.7402850136168
 30
0.0
 10
271.3819740448598
 20
130.7527710365248
 30
0.0
 10
271.4007346215985
 20
130.7653175988307
 30
0.0
 10
271.4194951983354
 20
130.7778641611367
 30
0.0
 10
271.4381140043442
 20
130.7905055950141
 30
0.0
 10
271.4565910396268
 20
130.8032419004612
 30
0.0
 10
271.4750680749075
 20
130.8159782059083
 30
0.0
 10
271.4933986826291
 20
130.8288437165283
 30
0.0
 10
271.5115828627913
 20
130.8418384323195
 30
0.0
 10
271.5297670429536
 20
130.8548331481124
 30
0.0
 10
271.5478001238025
 20
130.8679914066942
 30
0.0
 10
271.565682105338
 20
130.8813132080649
 30
0.0
 10
271.5835640868736
 20
130.8946350094374
 30
0.0
 10
271.60129027937
 20
130.9081546927427
 30
0.0
 10
271.6188606828255
 20
130.9218722579826
 30
0.0
 10
271.6364310862809
 20
130.9355898232224
 30
0.0
 10
271.6538409903896
 20
130.9495396073162
 30
0.0
 10
271.671090395148
 20
130.9637216102655
 30
0.0
 10
271.6883397999063
 20
130.9779036132149
 30
0.0
 10
271.7097020472629
 20
130.9960686096419
 30
0.0
 10
271.7351771372159
 20
131.0182165995429
 30
0.0
 10
271.7606522271708
 20
131.0403645894439
 30
0.0
 10
271.7855159072242
 20
131.0633741378242
 30
0.0
 10
271.8097681773761
 20
131.0872452446801
 30
0.0
 10
271.834020447528
 20
131.1111163515361
 30
0.0
 10
271.8581442013874
 20
131.1356951539892
 30
0.0
 10
271.8821394389579
 20
131.160981652034
 30
0.0
 10
271.9061346765266
 20
131.1862681500806
 30
0.0
 10
271.9332874759111
 20
131.2173566161636
 30
0.0
 10
271.9635978371098
 20
131.2542470502867
 30
0.0
 10
271.9939081983084
 20
131.2911374844079
 30
0.0
 10
272.0234261806563
 20
131.3299937191077
 30
0.0
 10
272.0521517841516
 20
131.3708157543878
 30
0.0
 10
272.080877387647
 20
131.4116377896662
 30
0.0
 10
272.1087729964711
 20
131.45469623186
 30
0.0
 10
272.1358386106222
 20
131.4999910809692
 30
0.0
 10
272.1629042247732
 20
131.5452859300785
 30
0.0
 10
272.185766571245
 20
131.5864578452219
 30
0.0
 10
272.2044256500376
 20
131.6235068264013
 30
0.0
 10
272.2230847288283
 20
131.6605558075789
 30
0.0
 10
272.2385185873518
 20
131.6923064976708
 30
0.0
 10
272.2507272256044
 20
131.7187588966771
 30
0.0
 10
272.2629358638569
 20
131.7452112956816
 30
0.0
 10
272.2749175510198
 20
131.7723747139662
 30
0.0
 10
272.2866722870931
 20
131.8002491515253
 30
0.0
 10
272.2984270231645
 20
131.8281235890881
 30
0.0
 10
272.3099501756697
 20
131.8567431959236
 30
0.0
 10
272.3212417446048
 20
131.8861079720354
 30
0.0
 10
272.3325333135399
 20
131.9154727481473
 30
0.0
 10
272.3435886761854
 20
131.9456168588731
 30
0.0
 10
272.3544078325395
 20
131.9765403042183
 30
0.0
 10
272.3652269888935
 20
132.00746374956
 30
0.0
 10
272.3758053217534
 20
132.0392007103619
 30
0.0
 10
272.3861428311211
 20
132.0717511866223
 30
0.0
 10
272.396480340487
 20
132.1043016628809
 30
0.0
 10
272.4065724111006
 20
132.1376998502601
 30
0.0
 10
272.4164190429601
 20
132.1719457487615
 30
0.0
 10
272.4262656748178
 20
132.2061916472594
 30
0.0
 10
272.4358622524233
 20
132.2413194710225
 30
0.0
 10
272.4452087757745
 20
132.2773292200472
 30
0.0
 10
272.4545552991258
 20
132.313338969072
 30
0.0
 10
272.4636471283229
 20
132.3502651034359
 30
0.0
 10
272.4724842633714
 20
132.3881076231337
 30
0.0
 10
272.481321398418
 20
132.4259501428332
 30
0.0
 10
272.4882935634323
 20
132.4570702353812
 30
0.0
 10
272.4934007584125
 20
132.4814679007741
 30
0.0
 10
272.4985079533908
 20
132.5058655661651
 30
0.0
 10
272.5020748109928
 20
132.5230372142632
 30
0.0
 10
272.5041013312166
 20
132.5329828450667
 30
0.0
 10
272.5072088007983
 20
132.5389047116259
 30
0.0
 10
272.5155366818781
 20
132.5546736242067
 30
0.0
 10
272.5290849744542
 20
132.5802895828128
 30
0.0
 10
272.5426332670322
 20
132.6059055414171
 30
0.0
 10
272.5587633191935
 20
132.6350617007792
 30
0.0
 10
272.5774751309382
 20
132.6677580608993
 30
0.0
 10
272.5961869426829
 20
132.7004544210194
 30
0.0
 10
272.6144570121869
 20
132.7317081600904
 30
0.0
 10
272.6322853394486
 20
132.7615192781104
 30
0.0
 10
272.6501136667102
 20
132.7913303961304
 30
0.0
 10
272.6682078700578
 20
132.8202107258039
 30
0.0
 10
272.6865679494931
 20
132.8481602671309
 30
0.0
 10
272.7049280289302
 20
132.8761098084578
 30
0.0
 10
272.7229801371795
 20
132.9029146561424
 30
0.0
 10
272.7407242742429
 20
132.9285748101865
 30
0.0
 10
272.7584684113062
 20
132.9542349642288
 30
0.0
 10
272.7765638569526
 20
132.9790565164257
 30
0.0
 10
272.7950106111785
 20
133.0030394667737
 30
0.0
 10
272.813457365406
 20
133.0270224171236
 30
0.0
 10
272.8317475129352
 20
133.050155496865
 30
0.0
 10
272.8498810537676
 20
133.0724387059981
 30
0.0
 10
272.8606615414192
 20
133.0856861937973
 30
0.0
 10
272.872672841062
 20
133.0998611941486
 30
0.0
 10
272.8859149526961
 20
133.1149637070593
 30
0.0
  0
SPLINE
  5
9A
330
70
100
AcDbEntity
  8
sakuzu
 62
     5
420
      255
370
    25
100
AcDbSpline
210
0.0
220
0.0
230
1.0
 70
     8
 71
     3
 72
    38
 73
    34
 74
     0
 42
0.0000000001
 43
0.0000000001
 40
0.0
 40
0.0
 40
0.0
 40
0.0
 40
1.0
 40
1.0
 40
1.0
 40
2.0
 40
2.0
 40
2.0
 40
3.0
 40
3.0
 40
3.0
 40
4.0
 40
4.0
 40
4.0
 40
5.0
 40
5.0
 40
5.0
 40
6.0
 40
6.0
 40
6.0
 40
7.0
 40
7.0
 40
7.0
 40
8.0
 40
8.0
 40
8.0
 40
9.0
 40
9.0
 40
9.0
 40
10.0
 40
10.0
 40
10.0
 40
11.0
 40
11.0
 40
11.0
 40
11.0
 10
273.7936362387809
 20
133.7840069071917
 30
0.0
 10
273.7420415420493
 20
133.7533631435744
 30
0.0
 10
273.696474951259
 20
133.7262158877329
 30
0.0
 10
273.6569364664083
 20
133.702565139667
 30
0.0
 10
273.6173979815576
 20
133.678914391603
 30
0.0
 10
273.5836221155314
 20
133.6585176710778
 30
0.0
 10
273.5556088683297
 20
133.6413749780931
 30
0.0
 10
273.527595621128
 20
133.6242322851085
 30
0.0
 10
273.5047219823209
 20
133.6101384877492
 30
0.0
 10
273.4869879519083
 20
133.5990935860172
 30
0.0
 10
273.4692539214957
 20
133.5880486842834
 30
0.0
 10
273.4476950749777
 20
133.5744580509672
 30
0.0
 10
273.4223114123597
 20
133.5583216860668
 30
0.0
 10
273.3969277497418
 20
133.5421853211665
 30
0.0
 10
273.3681703362236
 20
133.5233154760517
 30
0.0
 10
273.3360391718015
 20
133.5017121507207
 30
0.0
 10
273.3039080073813
 20
133.4801088253898
 30
0.0
 10
273.2727441694024
 20
133.458379084479
 30
0.0
 10
273.2425476578665
 20
133.4365229279865
 30
0.0
 10
273.2123511463306
 20
133.4146667714958
 30
0.0
 10
273.1829894718812
 20
133.3924500994508
 30
0.0
 10
273.1544626345203
 20
133.3698729118568
 30
0.0
 10
273.1259357971576
 20
133.3472957242629
 30
0.0
 10
273.0981118491818
 20
133.3241249912298
 30
0.0
 10
273.0709907905894
 20
133.3003607127593
 30
0.0
 10
273.0438697319969
 20
133.2765964342889
 30
0.0
 10
273.0173204120401
 20
133.2520050385683
 30
0.0
 10
272.9913428307209
 20
133.226586525594
 30
0.0
 10
272.9653652494016
 20
133.2011680126234
 30
0.0
 10
272.9398272764538
 20
133.1746928833963
 30
0.0
 10
272.9147289118791
 20
133.1471611379165
 30
0.0
 10
272.9045516601673
 20
133.1359971633501
 30
0.0
 10
272.8949470071057
 20
133.1252646863977
 30
0.0
 10
272.8859149526961
 20
133.1149637070593
 30
0.0
  0
SPLINE
  5
9B
330
70
100
AcDbEntity
  8
sakuzu
 62
     5
420
      255
370
    25
100
AcDbSpline
210
0.0
220
0.0
230
1.0
 70
     8
 71
     3
 72
    80
 73
    76
 74
     0
 42
0.0000000001
 43
0.0000000001
 40
0.0
 40
0.0
 40
0.0
 40
0.0
 40
1.0
 40
1.0
 40
1.0
 40
2.0
 40
2.0
 40
2.0
 40
3.0
 40
3.0
 40
3.0
 40
4.0
 40
4.0
 40
4.0
 40
5.0
 40
5.0
 40
5.0
 40
6.0
 40
6.0
 40
6.0
 40
7.0
 40
7.0
 40
7.0
 40
8.0
 40
8.0
 40
8.0
 40
9.0
 40
9.0
 40
9.0
 40
10.0
 40
10.0
 40
10.0
 40
11.0
 40
11.0
 40
11.0
 40
12.0
 40
12.0
 40
12.0
 40
13.0
 40
13.0
 40
13.0
 40
14.0
 40
14.0
 40
14.0
 40
15.0
 40
15.0
 40
15.0
 40
16.0
 40
16.0
 40
16.0
 40
17.0
 40
17.0
 40
17.0
 40
18.0
 40
18.0
 40
18.0
 40
19.0
 40
19.0
 40
19.0
 40
20.0
 40
20.0
 40
20.0
 40
21.0
 40
21.0
 40
21.0
 40
22.0
 40
22.0
 40
22.0
 40
23.0
 40
23.0
 40
23.0
 40
24.0
 40
24.0
 40
24.0
 40
25.0
 40
25.0
 40
25.0
 40
25.0
 10
274.2486820581508
 20
134.1222082673121
 30
0.0
 10
274.2543607747484
 20
134.1260140374797
 30
0.0
 10
274.261410333238
 20
134.1307503461776
 30
0.0
 10
274.2698307336177
 20
134.1364171934037
 30
0.0
 10
274.2782511339992
 20
134.1420840406299
 30
0.0
 10
274.2987749475742
 20
134.1559867918204
 30
0.0
 10
274.3314021743481
 20
134.1781254469715
 30
0.0
 10
274.3640294011184
 20
134.2002641021208
 30
0.0
 10
274.4037952067519
 20
134.2279190158533
 30
0.0
 10
274.4506995912452
 20
134.2610901881653
 30
0.0
 10
274.4976039757403
 20
134.2942613604791
 30
0.0
 10
274.549785080726
 20
134.331830564819
 30
0.0
 10
274.6072429062024
 20
134.3737978011886
 30
0.0
 10
274.6647007316787
 20
134.4157650375564
 30
0.0
 10
274.7203151277044
 20
134.4576184600264
 30
0.0
 10
274.7740860942813
 20
134.4993580685968
 30
0.0
 10
274.8278570608563
 20
134.5410976771672
 30
0.0
 10
274.8713684765353
 20
134.5752376698365
 30
0.0
 10
274.9046203413145
 20
134.6017780466063
 30
0.0
 10
274.9378722060974
 20
134.6283184233762
 30
0.0
 10
274.9703044807884
 20
134.6545303583225
 30
0.0
 10
275.0019171653948
 20
134.6804138514489
 30
0.0
 10
275.0335298499995
 20
134.7062973445736
 30
0.0
 10
275.0644048664308
 20
134.7318596144632
 30
0.0
 10
275.0945422146906
 20
134.7571006611179
 30
0.0
 10
275.1246795629504
 20
134.7823417077725
 30
0.0
 10
275.1541611908833
 20
134.8072687506264
 30
0.0
 10
275.1829870984893
 20
134.8318817896743
 30
0.0
 10
275.2118130060953
 20
134.8564948287239
 30
0.0
 10
275.2400651673197
 20
134.8808010845186
 30
0.0
 10
275.2677435821606
 20
134.9048005570585
 30
0.0
 10
275.2954219970015
 20
134.9288000295983
 30
0.0
 10
275.31934639662
 20
134.9496385203347
 30
0.0
 10
275.3395167810158
 20
134.9673160292714
 30
0.0
 10
275.3596871654135
 20
134.9849935382062
 30
0.0
 10
275.3763363457183
 20
134.9996050370046
 30
0.0
 10
275.3894643219337
 20
135.0111505256627
 30
0.0
 10
275.4025922981491
 20
135.0226960143209
 30
0.0
 10
275.4172128557111
 20
135.0355710434433
 30
0.0
 10
275.4333259946234
 20
135.0497756130316
 30
0.0
 10
275.4494391335356
 20
135.0639801826182
 30
0.0
 10
275.4685592618717
 20
135.0808447322051
 30
0.0
 10
275.4906863796332
 20
135.1003692617887
 30
0.0
 10
275.5128134973929
 20
135.1198937913741
 30
0.0
 10
275.5362953163058
 20
135.1405696220354
 30
0.0
 10
275.5611318363663
 20
135.162396753778
 30
0.0
 10
275.5859683564267
 20
135.184223885517
 30
0.0
 10
275.6106208297533
 20
135.2057785793713
 30
0.0
 10
275.6350892563478
 20
135.2270608353392
 30
0.0
 10
275.6595576829422
 20
135.2483430913071
 30
0.0
 10
275.6839242154911
 20
135.2693600664624
 30
0.0
 10
275.7081888539978
 20
135.2901117608053
 30
0.0
 10
275.7324534925028
 20
135.3108634551517
 30
0.0
 10
275.7566983505403
 20
135.3313570455029
 30
0.0
 10
275.7809234281085
 20
135.3515925318661
 30
0.0
 10
275.8051485056749
 20
135.3718280182274
 30
0.0
 10
275.8294359384927
 20
135.3918125693344
 30
0.0
 10
275.8537857265601
 20
135.411546185187
 30
0.0
 10
275.8781355146293
 20
135.4312798010396
 30
0.0
 10
275.9026296588527
 20
135.4507695562806
 30
0.0
 10
275.9272681592301
 20
135.4700154509082
 30
0.0
 10
275.9519066596076
 20
135.4892613455358
 30
0.0
 10
275.9767719596293
 20
135.5082707053279
 30
0.0
 10
276.0018640592952
 20
135.5270435302882
 30
0.0
 10
276.0269561589612
 20
135.5458163552448
 30
0.0
 10
276.0523554924039
 20
135.564358799942
 30
0.0
 10
276.078062059627
 20
135.5826708643744
 30
0.0
 10
276.1037686268482
 20
135.6009829288068
 30
0.0
 10
276.1248546008374
 20
135.6156918487813
 30
0.0
 10
276.1413199815925
 20
135.626797624298
 30
0.0
 10
276.1577853623476
 20
135.6379033998146
 30
0.0
 10
276.1693413229405
 20
135.6456654570065
 30
0.0
 10
276.1759878633711
 20
135.6500837958756
 30
0.0
 10
276.1793174979521
 20
135.6522971960712
 30
0.0
 10
276.1826613778558
 20
135.6545119169113
 30
0.0
 10
276.1860195030858
 20
135.656727958396
 30
0.0
  0
LWPOLYLINE
  5
9D
330
70
100
AcDbEntity
  8
sugata
 62
     1
420
 16711680
370
    18
100
AcDbPolyline
 90
        9
 70
     1
 43
0.0
 10
159.6947707596209
 20
155.4323852110528
 10
158.6685103886248
 20
158.1905901763266
 10
158.608032822729
 20
160.3790728204185
 10
163.6696503315288
 20
160.3790728204185
 10
163.6696503315288
 20
157.6926356928852
 10
163.6696503315288
 20
150.1363490465073
 10
163.203739386874
 20
149.6639854226068
 10
162.2126731050739
 20
149.6639854226068
 10
161.597730593774
 20
150.3183707049847
  0
LWPOLYLINE
  5
9E
330
70
100
AcDbEntity
  8
sugata
 62
     1
420
 16711680
370
    18
100
AcDbPolyline
 90
        5
 70
     0
 43
0.0
 10
211.5215083807397
 20
132.9588879378534
 10
185.1363683200834
 20
132.9588879378534
 10
185.1363683200834
 20
182.0130074597982
 10
211.5215083807397
 20
182.0130074597982
 10
211.5215083807397
 20
132.9588879378534
  0
LWPOLYLINE
  5
9F
330
70
100
AcDbEntity
  8
sugata
 62
     1
420
 16711680
370
    18
100
AcDbPolyline
 90
        5
 70
     0
 43
0.0
 10
184.1058565000876
 20
135.4364972691801
 10
182.7844160542081
 20
135.4364972691801
 10
182.7844160542081
 20
178.2140984590478
 10
184.1058565000876
 20
178.2140984590478
 10
184.1058565000876
 20
135.4364972691801
  0
LWPOLYLINE
  5
A1
330
70
100
AcDbEntity
  8
kaiko
  6
AI-Linetype-0
 62
     4
420
    65535
370
    18
100
AcDbPolyline
 90
        5
 70
     0
 43
0.0
 10
164.0710884761029
 20
150.6057239402353
 10
164.0710884761029
 20
116.3296387641749
 10
160.8275707532193
 20
116.3296387641749
 10
160.8275707532193
 20
150.6057239402353
 10
161.4908044862604
 20
150.6057239402353
  0
LINE
  5
A3
330
70
100
AcDbEntity
  8
kaiko
  6
AI-Linetype-1
 62
     4
420
    65535
370
    18
100
AcDbLine
 10
163.6696503315288
 20
150.6057239402353
 30
0.0
 11
164.0710884761029
 21
150.6057239402353
 31
0.0
  0
SPLINE
  5
A5
330
70
100
AcDbEntity
  8
kaiko
  6
AI-Linetype-2
 62
     4
420
    65535
370
    18
100
AcDbSpline
210
0.0
220
0.0
230
1.0
 70
     9
 71
     3
 72
    29
 73
    25
 74
     0
 42
0.0000000001
 43
0.0000000001
 40
0.0
 40
0.0
 40
0.0
 40
0.0
 40
1.0
 40
1.0
 40
1.0
 40
2.0
 40
2.0
 40
2.0
 40
3.0
 40
3.0
 40
3.0
 40
4.0
 40
4.0
 40
4.0
 40
5.0
 40
5.0
 40
5.0
 40
6.0
 40
6.0
 40
6.0
 40
7.0
 40
7.0
 40
7.0
 40
8.0
 40
8.0
 40
8.0
 40
8.0
 10
166.1177080925918
 20
118.0848420044276
 30
0.0
 10
166.2280032638155
 20
117.8598740003653
 30
0.0
 10
166.4567140934632
 20
117.7172850718307
 30
0.0
 10
166.7072647423283
 20
117.7172850718307
 30
0.0
 10
167.0698944418127
 20
117.7172850718307
 30
0.0
 10
167.3638638962875
 20
118.0112545263055
 30
0.0
 10
167.3638638962875
 20
118.373884225788
 30
0.0
 10
167.3638638962875
 20
118.7365139252724
 30
0.0
 10
167.0698944418127
 20
119.0304833797472
 30
0.0
 10
166.7072647423283
 20
119.0304833797472
 30
0.0
 10
166.4567140934632
 20
119.0304833797472
 30
0.0
 10
166.2280032638155
 20
118.8878944512107
 30
0.0
 10
166.1177080925918
 20
118.6629264471503
 30
0.0
 10
166.1177080925918
 20
118.6629264471503
 30
0.0
 10
164.0710884761029
 20
118.6629264471503
 30
0.0
 10
164.0710884761029
 20
118.6629264471503
 30
0.0
 10
164.0710884761029
 20
118.6629264471503
 30
0.0
 10
164.0710884761029
 20
118.0848420044276
 30
0.0
 10
164.0710884761029
 20
118.0848420044276
 30
0.0
 10
164.0710884761029
 20
118.0848420044276
 30
0.0
 10
166.1177080925918
 20
118.0848420044276
 30
0.0
 10
166.1177080925918
 20
118.0848420044276
 30
0.0
 10
166.1177080925918
 20
118.0848420044276
 30
0.0
 10
166.1177080925918
 20
118.0848420044276
 30
0.0
 10
166.1177080925918
 20
118.0848420044276
 30
0.0
  0
SPLINE
  5
A7
330
70
100
AcDbEntity
  8
kaiko
  6
AI-Linetype-3
 62
     4
420
    65535
370
    18
100
AcDbSpline
210
0.0
220
0.0
230
1.0
 70
     8
 71
     3
 72
     8
 73
     4
 74
     0
 42
0.0000000001
 43
0.0000000001
 40
0.0
 40
0.0
 40
0.0
 40
0.0
 40
1.0
 40
1.0
 40
1.0
 40
1.0
 10
129.7950033000415
 20
148.9081284700751
 30
0.0
 10
129.7989601033177
 20
131.518604866982
 30
0.0
 10
143.4596709714051
 20
117.1977087402792
 30
0.0
 10
160.8296587985824
 20
116.3736518960304
 30
0.0
  0
MTEXT
  5
AA
330
70
100
AcDbEntity
  8
moji
100
AcDbMText
 10
141.9547576904297
 20
224.338134765625
 30
0.0
 40
0.2
 41
0.0
 46
0.0
 71
     7
 72
     1
  1
\C18;\c0;\FMS Gothic|b0|i0|c128;\H2.785212;\W1.000000;上面図
 73
     1
 44
1.0
  0
CIRCLE
  5
AB
330
70
100
AcDbEntity
  8
moji
 62
    18
420
        0
370
    18
100
AcDbCircle
 10
147.5605276570531
 20
225.3348873669256
 30
0.0
 40
7.142857142856882
  0
MTEXT
  5
AC
330
70
100
AcDbEntity
  8
moji
100
AcDbMText
 10
193.3936004638672
 20
224.3442535400391
 30
0.0
 40
0.2
 41
0.0
 46
0.0
 71
     7
 72
     1
  1
\C18;\c0;\FMS Gothic|b0|i0|c128;\H2.785212;\W1.000000;正面図
 73
     1
 44
1.0
  0
CIRCLE
  5
AD
330
70
100
AcDbEntity
  8
moji
 62
    18
420
        0
370
    18
100
AcDbCircle
 10
199.0417895534628
 20
225.3339230103347
 30
0.0
 40
7.142857142856882
  0
MTEXT
  5
AE
330
70
100
AcDbEntity
  8
moji
100
AcDbMText
 10
243.9916381835938
 20
224.3664245605469
 30
0.0
 40
0.2
 41
0.0
 46
0.0
 71
     7
 72
     1
  1
\C18;\c0;\FMS Gothic|b0|i0|c128;\H2.785212;\W1.000000;側面図
 73
     1
 44
1.0
  0
CIRCLE
  5
AF
330
70
100
AcDbEntity
  8
moji
 62
    18
420
        0
370
    18
100
AcDbCircle
 10
249.427752680474
 20
225.3348873669256
 30
0.0
 40
7.142857142857565
  0
MTEXT
  5
B0
330
70
100
AcDbEntity
  8
moji
100
AcDbMText
 10
227.1318359375
 20
82.69188690185547
 30
0.0
 40
0.2
 41
0.0
 46
0.0
 71
     7
 72
     1
  1
\C18;\c0;\FMS PGothic|b0|i0|c128;\H2.066011;\W1.000000;部品名
 73
     1
 44
1.0
  0
MTEXT
  5
B1
330
70
100
AcDbEntity
  8
moji
100
AcDbMText
 10
204.0750579833984
 20
76.16881561279297
 30
0.0
 40
0.2
 41
0.0
 46
0.0
 71
     7
 72
     1
  1
\C18;\c0;\FMS PGothic|b0|i0|c128;\H2.066011;\W1.000000;電源コード(後面) 1.8m
 73
     1
 44
1.0
  0
MTEXT
  5
B2
330
70
100
AcDbEntity
  8
moji
100
AcDbMText
 10
204.0126037597656
 20
69.94281768798828
 30
0.0
 40
0.2
 41
0.0
 46
0.0
 71
     7
 72
     1
  1
\C18;\c0;\FMS PGothic|b0|i0|c128;\H2.066011;\W1.000000;レベルスクリュー(前脚のみ)
 73
     1
 44
1.0
  0
MTEXT
  5
B3
330
70
100
AcDbEntity
  8
moji
100
AcDbMText
 10
243.7349243164062
 20
69.69630432128906
 30
0.0
 40
0.2
 41
0.0
 46
0.0
 71
     7
 72
     1
  1
\C18;\c0;\FMS PGothic|b0|i0|c128;\H2.066011;\W1.000000; 20      mm
 73
     1
 44
1.0
  0
MTEXT
  5
B4
330
70
100
AcDbEntity
  8
moji
100
AcDbMText
 10
261.9588623046875
 20
82.36111450195313
 30
0.0
 40
0.2
 41
0.0
 46
0.0
 71
     7
 72
     1
  1
\C18;\c0;\FMS PGothic|b0|i0|c128;\H2.066011;\W1.000000;個数
 73
     1
 44
1.0
  0
MTEXT
  5
B5
330
70
100
AcDbEntity
  8
moji
100
AcDbMText
 10
197.3673706054687
 20
81.56191253662109
 30
0.0
 40
0.2
 41
0.0
 46
0.0
 71
     7
 72
     1
  1
\C18;\c0;\FMS PGothic|b0|i0|c128;\H3.099017;\W0.666667;No.
 73
     1
 44
1.0
  0
MTEXT
  5
B6
330
70
100
AcDbEntity
  8
moji
100
AcDbMText
 10
198.0639495849609
 20
76.21576690673828
 30
0.0
 40
0.2
 41
0.0
 46
0.0
 71
     7
 72
     1
  1
\C18;\c0;\FMS PGothic|b0|i0|c128;\H2.066011;\W1.000000;①
 73
     1
 44
1.0
  0
MTEXT
  5
B7
330
70
100
AcDbEntity
  8
moji
100
AcDbMText
 10
198.0639495849609
 20
70.00151062011719
 30
0.0
 40
0.2
 41
0.0
 46
0.0
 71
     7
 72
     1
  1
\C18;\c0;\FMS PGothic|b0|i0|c128;\H2.066011;\W1.000000;②
 73
     1
 44
1.0
  0
MTEXT
  5
B8
330
70
100
AcDbEntity
  8
moji
100
AcDbMText
 10
264.0014038085937
 20
75.9189453125
 30
0.0
 40
0.2
 41
0.0
 46
0.0
 71
     7
 72
     1
  1
\C18;\c0;\FMS PGothic|b0|i0|c128;\H2.066011;\W1.000000;1
 73
     1
 44
1.0
  0
MTEXT
  5
B9
330
70
100
AcDbEntity
  8
moji
100
AcDbMText
 10
264.1657409667969
 20
69.70217132568359
 30
0.0
 40
0.2
 41
0.0
 46
0.0
 71
     7
 72
     1
  1
\C18;\c0;\FMS PGothic|b0|i0|c128;\H2.066011;\W1.000000;2
 73
     1
 44
1.0
  0
LINE
  5
BA
330
70
100
AcDbEntity
  8
moji
 62
    18
420
        0
370
    18
100
AcDbLine
 10
197.074198190352
 20
67.58688204397913
 30
0.0
 11
268.7311886479438
 21
67.58688204397913
 31
0.0
  0
LINE
  5
BB
330
70
100
AcDbEntity
  8
moji
 62
    18
420
        0
370
    18
100
AcDbLine
 10
268.7311886479438
 20
67.58688204397913
 30
0.0
 11
268.7311886479438
 21
86.26914040578776
 31
0.0
  0
LINE
  5
BC
330
70
100
AcDbEntity
  8
moji
 62
    18
420
        0
370
    18
100
AcDbLine
 10
268.7311886479438
 20
86.26914040578776
 30
0.0
 11
197.074198190352
 21
86.26914040578776
 31
0.0
  0
LINE
  5
BD
330
70
100
AcDbEntity
  8
moji
 62
    18
420
        0
370
    18
100
AcDbLine
 10
197.074198190352
 20
86.26914040578776
 30
0.0
 11
197.074198190352
 21
67.58688204397913
 31
0.0
  0
LINE
  5
BE
330
70
100
AcDbEntity
  8
moji
 62
    18
420
        0
370
    18
100
AcDbLine
 10
202.1996555300102
 20
86.24451828141536
 30
0.0
 11
202.1996555300102
 21
67.57750218683941
 31
0.0
  0
LINE
  5
BF
330
70
100
AcDbEntity
  8
moji
 62
    18
420
        0
370
    18
100
AcDbLine
 10
261.4080430192971
 20
86.24451828141536
 30
0.0
 11
261.4080430192971
 21
67.57750218683941
 31
0.0
  0
LINE
  5
C0
330
70
100
AcDbEntity
  8
moji
 62
    18
420
        0
370
    18
100
AcDbLine
 10
197.074198190352
 20
80.0389621658669
 30
0.0
 11
268.7190729994436
 21
80.0389621658669
 31
0.0
  0
LINE
  5
C1
330
70
100
AcDbEntity
  8
moji
 62
    18
420
        0
370
    18
100
AcDbLine
 10
197.074198190352
 20
73.82470022099005
 30
0.0
 11
268.7190729994436
 21
73.82470022099005
 31
0.0
  0
LINE
  5
C2
330
70
100
AcDbEntity
  8
moji
 62
    18
420
        0
370
    18
100
AcDbLine
 10
197.0741981903538
 20
67.61185946659134
 30
0.0
 11
268.7190729994436
 21
67.61185946659134
 31
0.0
  0
MTEXT
  5
C3
330
70
100
AcDbEntity
  8
moji
100
AcDbMText
 10
249.4510955810547
 20
70.98754119873047
 30
0.0
 40
0.2
 41
0.0
 46
0.0
 71
     7
 72
     1
  1
\C18;\c0;\FMS PGothic|b0|i0|c128;\H1.838750;\W1.011240;-0
 73
     1
 44
1.0
  0
MTEXT
  5
C4
330
70
100
AcDbEntity
  8
moji
100
AcDbMText
 10
248.3703918457031
 20
68.85575866699219
 30
0.0
 40
0.2
 41
0.0
 46
0.0
 71
     7
 72
     1
  1
\C18;\c0;\FMS PGothic|b0|i0|c128;\H1.838750;\W1.011240;+10
 73
     1
 44
1.0
  0
LINE
  5
C5
330
70
100
AcDbEntity
  8
moji
 62
    18
420
        0
370
    18
100
AcDbLine
 10
18.81377408858952
 20
217.270081830261
 30
0.0
 11
82.45542774970727
 21
217.270081830261
 31
0.0
  0
LINE
  5
C6
330
70
100
AcDbEntity
  8
moji
 62
    18
420
        0
370
    18
100
AcDbLine
 10
18.81377408858952
 20
207.0904855363924
 30
0.0
 11
82.44729143443874
 21
207.0904855363924
 31
0.0
  0
LINE
  5
C7
330
70
100
AcDbEntity
  8
moji
 62
    18
420
        0
370
    18
100
AcDbLine
 10
82.44729143443874
 20
207.0904855363924
 30
0.0
 11
82.44729143443874
 21
225.2713840070828
 31
0.0
  0
LINE
  5
C8
330
70
100
AcDbEntity
  8
moji
 62
    18
420
        0
370
    18
100
AcDbLine
 10
82.44729143443874
 20
225.2713840070828
 30
0.0
 11
18.81377408858952
 21
225.2713840070828
 31
0.0
  0
LINE
  5
C9
330
70
100
AcDbEntity
  8
moji
 62
    18
420
        0
370
    18
100
AcDbLine
 10
18.81377408858952
 20
225.2713840070828
 30
0.0
 11
18.81377408858952
 21
207.0904855363924
 31
0.0
  0
MTEXT
  5
CA
330
70
100
AcDbEntity
  8
moji
100
AcDbMText
 10
20.82100868225098
 20
220.7390441894531
 30
0.0
 40
0.2
 41
0.0
 46
0.0
 71
     7
 72
     1
  1
\C18;\c0;\FMS PGothic|b0|i0|c128;\H1.785714;\W1.000000;ワインセラー仕様・外形寸法図
 73
     1
 44
1.0
  0
MTEXT
  5
CB
330
70
100
AcDbEntity
  8
moji
100
AcDbMText
 10
22.86495399475098
 20
211.5477447509765
 30
0.0
 40
0.2
 41
0.0
 46
0.0
 71
     7
 72
     1
  1
\C18;\c0;\FMS PGothic|b0|i0|c128;\H1.785714;\W1.000000;型式
 73
     1
 44
1.0
  0
MTEXT
  5
CC
330
70
100
AcDbEntity
  8
moji
100
AcDbMText
 10
36.98878860473633
 20
209.339370727539
 30
0.0
 40
0.2
 41
0.0
 46
0.0
 71
     7
 72
     1
  1
\C18;\c0;\FMS PGothic|b0|i0|c128;\H5.714286;\W1.000000;MWS04FL
 73
     1
 44
1.0
  0
MTEXT
  5
CD
330
70
100
AcDbEntity
  8
moji
100
AcDbMText
 10
18.51735115051269
 20
112.9914093017578
 30
0.0
 40
0.2
 41
0.0
 46
0.0
 71
     7
 72
     1
  1
\C18;\c0;\FMS PGothic|b0|i0|c128;\H1.785714;\W1.000000;※
 73
     1
 44
1.0
  0
MTEXT
  5
CE
330
70
100
AcDbEntity
  8
moji
100
AcDbMText
 10
21.19649887084961
 20
113.0131607055664
 30
0.0
 40
0.2
 41
0.0
 46
0.0
 71
     7
 72
     1
  1
\C18;\c0;\FMS PGothic|b0|i0|c128;\H1.785714;\W1.000000;13℃以下。32℃以上の場所には、設置しないでください。
 73
     1
 44
1.0
  0
MTEXT
  5
CF
330
70
100
AcDbEntity
  8
moji
100
AcDbMText
 10
18.51735115051269
 20
109.4497299194336
 30
0.0
 40
0.2
 41
0.0
 46
0.0
 71
     7
 72
     1
  1
\C18;\c0;\FMS PGothic|b0|i0|c128;\H1.785714;\W1.000000;※必要最小放熱スペース（壁面より）
 73
     1
 44
1.0
  0
MTEXT
  5
D0
330
70
100
AcDbEntity
  8
moji
100
AcDbMText
 10
19.94978332519531
 20
106.3300704956054
 30
0.0
 40
0.2
 41
0.0
 46
0.0
 71
     7
 72
     1
  1
\C18;\c0;\FMS PGothic|b0|i0|c128;\H1.785714;\W1.000000;　上面50mm/両側面40mm/背面50mm
 73
     1
 44
1.0
  0
MTEXT
  5
D1
330
70
100
AcDbEntity
  8
moji
100
AcDbMText
 10
18.51735115051269
 20
103.1303939819336
 30
0.0
 40
0.2
 41
0.0
 46
0.0
 71
     7
 72
     1
  1
\C18;\c0;\FMS PGothic|b0|i0|c128;\H1.785714;\W1.000000;※トランスの外形寸法
 73
     1
 44
1.0
  0
MTEXT
  5
D2
330
70
100
AcDbEntity
  8
moji
100
AcDbMText
 10
21.51226997375488
 20
100.2113494873047
 30
0.0
 40
0.2
 41
0.0
 46
0.0
 71
     7
 72
     1
  1
\C18;\c0;\FMS PGothic|b0|i0|c128;\H1.785714;\W1.000000;幅95㎜×奥行95㎜×高さ70㎜
 73
     1
 44
1.0
  0
SPLINE
  5
D3
330
70
100
AcDbEntity
  8
moji
 62
    18
420
        0
370
    25
100
AcDbSpline
210
0.0
220
0.0
230
1.0
 70
    11
 71
     3
 72
    65
 73
    61
 74
     0
 42
0.0000000001
 43
0.0000000001
 40
0.0
 40
0.0
 40
0.0
 40
0.0
 40
1.0
 40
1.0
 40
1.0
 40
2.0
 40
2.0
 40
2.0
 40
3.0
 40
3.0
 40
3.0
 40
4.0
 40
4.0
 40
4.0
 40
5.0
 40
5.0
 40
5.0
 40
6.0
 40
6.0
 40
6.0
 40
7.0
 40
7.0
 40
7.0
 40
8.0
 40
8.0
 40
8.0
 40
9.0
 40
9.0
 40
9.0
 40
10.0
 40
10.0
 40
10.0
 40
11.0
 40
11.0
 40
11.0
 40
12.0
 40
12.0
 40
12.0
 40
13.0
 40
13.0
 40
13.0
 40
14.0
 40
14.0
 40
14.0
 40
15.0
 40
15.0
 40
15.0
 40
16.0
 40
16.0
 40
16.0
 40
17.0
 40
17.0
 40
17.0
 40
18.0
 40
18.0
 40
18.0
 40
19.0
 40
19.0
 40
19.0
 40
20.0
 40
20.0
 40
20.0
 40
20.0
 10
21.2019780939454
 20
232.9534868110959
 30
0.0
 10
21.2019780939454
 20
232.9534868110959
 30
0.0
 10
21.22471714155927
 20
232.9534868110959
 30
0.0
 10
21.22471714155927
 20
232.9534868110959
 30
0.0
 10
21.73442710571635
 20
233.6340593830182
 30
0.0
 10
22.36223799841718
 20
233.9205053182022
 30
0.0
 10
23.14520736131726
 20
233.9205053182022
 30
0.0
 10
24.0230411884786
 20
233.9205053182022
 30
0.0
 10
24.77819074781292
 20
233.5626090336509
 30
0.0
 10
25.21922168222682
 20
232.7524238936066
 30
0.0
 10
25.63417377140832
 20
233.5150702134352
 30
0.0
 10
26.45043452120444
 20
233.9205053182022
 30
0.0
 10
27.27934386623565
 20
233.9205053182022
 30
0.0
 10
28.82197506823104
 20
233.9205053182022
 30
0.0
 10
29.35474384785994
 20
232.9073336515594
 30
0.0
 10
29.35474384785994
 20
231.4998626402357
 30
0.0
 10
29.35474384785994
 20
231.4998626402357
 30
0.0
 10
29.35474384785994
 20
227.600786197655
 30
0.0
 10
29.35474384785994
 20
227.600786197655
 30
0.0
 10
29.35474384785994
 20
227.600786197655
 30
0.0
 10
27.19798071149398
 20
227.600786197655
 30
0.0
 10
27.19798071149398
 20
227.600786197655
 30
0.0
 10
27.19798071149398
 20
227.600786197655
 30
0.0
 10
27.19798071149398
 20
230.5206930160193
 30
0.0
 10
27.19798071149398
 20
230.5206930160193
 30
0.0
 10
27.19798071149398
 20
231.154117595097
 30
0.0
 10
27.22192777101191
 20
232.1915510864874
 30
0.0
 10
26.30973666409682
 20
232.1915510864874
 30
0.0
 10
25.31376637863195
 20
232.1915510864874
 30
0.0
 10
25.27731284292713
 20
231.2486672236328
 30
0.0
 10
25.27731284292713
 20
230.5206930160193
 30
0.0
 10
25.27731284292713
 20
230.5206930160193
 30
0.0
 10
25.27731284292713
 20
227.600786197655
 30
0.0
 10
25.27731284292713
 20
227.600786197655
 30
0.0
 10
25.27731284292713
 20
227.600786197655
 30
0.0
 10
23.12126030179934
 20
227.600786197655
 30
0.0
 10
23.12126030179934
 20
227.600786197655
 30
0.0
 10
23.12126030179934
 20
227.600786197655
 30
0.0
 10
23.12126030179934
 20
230.5206930160193
 30
0.0
 10
23.12126030179934
 20
230.5206930160193
 30
0.0
 10
23.12126030179934
 20
231.2014787665075
 30
0.0
 10
23.12126030179934
 20
232.238201662678
 30
0.0
 10
22.16032236156298
 20
232.238201662678
 30
0.0
 10
21.2019780939454
 20
232.238201662678
 30
0.0
 10
21.2019780939454
 20
231.2014787665075
 30
0.0
 10
21.2019780939454
 20
230.5206930160193
 30
0.0
 10
21.2019780939454
 20
230.5206930160193
 30
0.0
 10
21.2019780939454
 20
227.600786197655
 30
0.0
 10
21.2019780939454
 20
227.600786197655
 30
0.0
 10
21.2019780939454
 20
227.600786197655
 30
0.0
 10
19.04485965996082
 20
227.600786197655
 30
0.0
 10
19.04485965996082
 20
227.600786197655
 30
0.0
 10
19.04485965996082
 20
227.600786197655
 30
0.0
 10
19.04485965996082
 20
233.7182293868236
 30
0.0
 10
19.04485965996082
 20
233.7182293868236
 30
0.0
 10
19.04485965996082
 20
233.7182293868236
 30
0.0
 10
21.2019780939454
 20
233.7182293868236
 30
0.0
 10
21.2019780939454
 20
233.7182293868236
 30
0.0
 10
21.2019780939454
 20
233.7182293868236
 30
0.0
 10
21.2019780939454
 20
232.9534868110959
 30
0.0
 10
21.2019780939454
 20
232.9534868110959
 30
0.0
  0
SPLINE
  5
D4
330
70
100
AcDbEntity
  8
moji
 62
    18
420
        0
370
    25
100
AcDbSpline
210
0.0
220
0.0
230
1.0
 70
     9
 71
     3
 72
    17
 73
    13
 74
     0
 42
0.0000000001
 43
0.0000000001
 40
0.0
 40
0.0
 40
0.0
 40
0.0
 40
1.0
 40
1.0
 40
1.0
 40
2.0
 40
2.0
 40
2.0
 40
3.0
 40
3.0
 40
3.0
 40
4.0
 40
4.0
 40
4.0
 40
4.0
 10
32.26896597808263
 20
230.6528992566937
 30
0.0
 10
32.26896597808263
 20
229.8777819907546
 30
0.0
 10
32.77689945414659
 20
229.2794252857821
 30
0.0
 10
33.65316997178525
 20
229.2794252857821
 30
0.0
 10
34.53050638227978
 20
229.2794252857821
 30
0.0
 10
35.03794244167603
 20
229.8777819907546
 30
0.0
 10
35.03794244167603
 20
230.6528992566937
 30
0.0
 10
35.03794244167603
 20
231.4049577077449
 30
0.0
 10
34.53050638227978
 20
232.0364636797294
 30
0.0
 10
33.65316997178525
 20
232.0364636797294
 30
0.0
 10
32.77689945414659
 20
232.0364636797294
 30
0.0
 10
32.26896597808263
 20
231.4049577077449
 30
0.0
 10
32.26896597808263
 20
230.6528992566937
 30
0.0
  0
SPLINE
  5
D5
330
70
100
AcDbEntity
  8
moji
 62
    18
420
        0
370
    25
100
AcDbSpline
210
0.0
220
0.0
230
1.0
 70
    11
 71
     3
 72
    35
 73
    31
 74
     0
 42
0.0000000001
 43
0.0000000001
 40
0.0
 40
0.0
 40
0.0
 40
0.0
 40
1.0
 40
1.0
 40
1.0
 40
2.0
 40
2.0
 40
2.0
 40
3.0
 40
3.0
 40
3.0
 40
4.0
 40
4.0
 40
4.0
 40
5.0
 40
5.0
 40
5.0
 40
6.0
 40
6.0
 40
6.0
 40
7.0
 40
7.0
 40
7.0
 40
8.0
 40
8.0
 40
8.0
 40
9.0
 40
9.0
 40
9.0
 40
10.0
 40
10.0
 40
10.0
 40
10.0
 10
37.12531595305973
 20
227.600786197655
 30
0.0
 10
37.12531595305973
 20
227.600786197655
 30
0.0
 10
34.96801987026538
 20
227.600786197655
 30
0.0
 10
34.96801987026538
 20
227.600786197655
 30
0.0
 10
34.96801987026538
 20
227.600786197655
 30
0.0
 10
34.96801987026538
 20
228.2792980434397
 30
0.0
 10
34.96801987026538
 20
228.2792980434397
 30
0.0
 10
34.96801987026538
 20
228.2792980434397
 30
0.0
 10
34.94549400122378
 20
228.2792980434397
 30
0.0
 10
34.94549400122378
 20
228.2792980434397
 30
0.0
 10
34.56486366203353
 20
227.6698205232742
 30
0.0
 10
33.81991114436187
 20
227.3976270242665
 30
0.0
 10
33.10739729930265
 20
227.3976270242665
 30
0.0
 10
31.30785038903832
 20
227.3976270242665
 30
0.0
 10
30.03879835364114
 20
228.9125094439514
 30
0.0
 10
30.03879835364114
 20
230.6652280837598
 30
0.0
 10
30.03879835364114
 20
232.4193323842473
 30
0.0
 10
31.28319273428224
 20
233.9205053182022
 30
0.0
 10
33.0836278885945
 20
233.9205053182022
 30
0.0
 10
33.78381290627658
 20
233.9205053182022
 30
0.0
 10
34.51938556680671
 20
233.6581840907365
 30
0.0
 10
34.96801987026538
 20
233.1214409731638
 30
0.0
 10
34.96801987026538
 20
233.1214409731638
 30
0.0
 10
34.96801987026538
 20
233.7182293868236
 30
0.0
 10
34.96801987026538
 20
233.7182293868236
 30
0.0
 10
34.96801987026538
 20
233.7182293868236
 30
0.0
 10
37.12531595305973
 20
233.7182293868236
 30
0.0
 10
37.12531595305973
 20
233.7182293868236
 30
0.0
 10
37.12531595305973
 20
233.7182293868236
 30
0.0
 10
37.12531595305973
 20
227.600786197655
 30
0.0
 10
37.12531595305973
 20
227.600786197655
 30
0.0
  0
SPLINE
  5
D6
330
70
100
AcDbEntity
  8
moji
 62
    18
420
        0
370
    25
100
AcDbSpline
210
0.0
220
0.0
230
1.0
 70
     9
 71
     3
 72
    17
 73
    13
 74
     0
 42
0.0000000001
 43
0.0000000001
 40
0.0
 40
0.0
 40
0.0
 40
0.0
 40
1.0
 40
1.0
 40
1.0
 40
2.0
 40
2.0
 40
2.0
 40
3.0
 40
3.0
 40
3.0
 40
4.0
 40
4.0
 40
4.0
 40
4.0
 10
40.06259599790519
 20
230.6528992566937
 30
0.0
 10
40.06259599790519
 20
229.8777819907546
 30
0.0
 10
40.57141770516227
 20
229.2794252857821
 30
0.0
 10
41.4483987958838
 20
229.2794252857821
 30
0.0
 10
42.32484694019058
 20
229.2794252857821
 30
0.0
 10
42.83455689147285
 20
229.8777819907546
 30
0.0
 10
42.83455689147285
 20
230.6528992566937
 30
0.0
 10
42.83455689147285
 20
231.4049577077449
 30
0.0
 10
42.32484694019058
 20
232.0364636797294
 30
0.0
 10
41.4483987958838
 20
232.0364636797294
 30
0.0
 10
40.57141770516227
 20
232.0364636797294
 30
0.0
 10
40.06259599790519
 20
231.4049577077449
 30
0.0
 10
40.06259599790519
 20
230.6528992566937
 30
0.0
  0
SPLINE
  5
D7
330
70
100
AcDbEntity
  8
moji
 62
    18
420
        0
370
    25
100
AcDbSpline
210
0.0
220
0.0
230
1.0
 70
    11
 71
     3
 72
    35
 73
    31
 74
     0
 42
0.0000000001
 43
0.0000000001
 40
0.0
 40
0.0
 40
0.0
 40
0.0
 40
1.0
 40
1.0
 40
1.0
 40
2.0
 40
2.0
 40
2.0
 40
3.0
 40
3.0
 40
3.0
 40
4.0
 40
4.0
 40
4.0
 40
5.0
 40
5.0
 40
5.0
 40
6.0
 40
6.0
 40
6.0
 40
7.0
 40
7.0
 40
7.0
 40
8.0
 40
8.0
 40
8.0
 40
9.0
 40
9.0
 40
9.0
 40
10.0
 40
10.0
 40
10.0
 40
10.0
 10
37.97522338737053
 20
237.4986314868065
 30
0.0
 10
37.97522338737053
 20
237.4986314868065
 30
0.0
 10
40.1325185675505
 20
237.4986314868065
 30
0.0
 10
40.1325185675505
 20
237.4986314868065
 30
0.0
 10
40.1325185675505
 20
237.4986314868065
 30
0.0
 10
40.1325185675505
 20
233.1214409731638
 30
0.0
 10
40.1325185675505
 20
233.1214409731638
 30
0.0
 10
40.59518711527016
 20
233.6581840907365
 30
0.0
 10
41.31690408296435
 20
233.9205053182022
 30
0.0
 10
42.01829616229679
 20
233.9205053182022
 30
0.0
 10
43.81734561044686
 20
233.9205053182022
 30
0.0
 10
45.06053194777814
 20
232.4193323842473
 30
0.0
 10
45.06053194777814
 20
230.6652280837598
 30
0.0
 10
45.06053194777814
 20
228.8995055514261
 30
0.0
 10
43.80675774166957
 20
227.3976270242665
 30
0.0
 10
41.99470440099412
 20
227.3976270242665
 30
0.0
 10
41.28201292512858
 20
227.3976270242665
 30
0.0
 10
40.54764829505439
 20
227.6698205232742
 30
0.0
 10
40.15628797765839
 20
228.2792980434397
 30
0.0
 10
40.15628797765839
 20
228.2792980434397
 30
0.0
 10
40.1325185675505
 20
228.2792980434397
 30
0.0
 10
40.1325185675505
 20
228.2792980434397
 30
0.0
 10
40.1325185675505
 20
228.2792980434397
 30
0.0
 10
40.1325185675505
 20
227.600786197655
 30
0.0
 10
40.1325185675505
 20
227.600786197655
 30
0.0
 10
40.1325185675505
 20
227.600786197655
 30
0.0
 10
37.97522338737053
 20
227.600786197655
 30
0.0
 10
37.97522338737053
 20
227.600786197655
 30
0.0
 10
37.97522338737053
 20
227.600786197655
 30
0.0
 10
37.97522338737053
 20
237.4986314868065
 30
0.0
 10
37.97522338737053
 20
237.4986314868065
 30
0.0
  0
SPLINE
  5
D8
330
70
100
AcDbEntity
  8
moji
 62
    18
420
        0
370
    25
100
AcDbSpline
210
0.0
220
0.0
230
1.0
 70
     9
 71
     3
 72
    14
 73
    10
 74
     0
 42
0.0000000001
 43
0.0000000001
 40
0.0
 40
0.0
 40
0.0
 40
0.0
 40
1.0
 40
1.0
 40
1.0
 40
2.0
 40
2.0
 40
2.0
 40
3.0
 40
3.0
 40
3.0
 40
3.0
 10
50.37212462774459
 20
231.5472188707827
 30
0.0
 10
50.2669920649505
 20
232.130830724941
 30
0.0
 10
49.73024396554865
 20
232.5138820447437
 30
0.0
 10
49.15217475410554
 20
232.5138820447437
 30
0.0
 10
48.5234756332411
 20
232.5138820447437
 30
0.0
 10
48.00250274772224
 20
232.1804302712944
 30
0.0
 10
47.87168216772625
 20
231.5472188707827
 30
0.0
 10
47.87168216772625
 20
231.5472188707827
 30
0.0
 10
50.37212462774459
 20
231.5472188707827
 30
0.0
 10
50.37212462774459
 20
231.5472188707827
 30
0.0
  0
SPLINE
  5
D9
330
70
100
AcDbEntity
  8
moji
 62
    18
420
        0
370
    25
100
AcDbSpline
210
0.0
220
0.0
230
1.0
 70
    11
 71
     3
 72
    32
 73
    28
 74
     0
 42
0.0000000001
 43
0.0000000001
 40
0.0
 40
0.0
 40
0.0
 40
0.0
 40
1.0
 40
1.0
 40
1.0
 40
2.0
 40
2.0
 40
2.0
 40
3.0
 40
3.0
 40
3.0
 40
4.0
 40
4.0
 40
4.0
 40
5.0
 40
5.0
 40
5.0
 40
6.0
 40
6.0
 40
6.0
 40
7.0
 40
7.0
 40
7.0
 40
8.0
 40
8.0
 40
8.0
 40
9.0
 40
9.0
 40
9.0
 40
9.0
 10
52.37397795167272
 20
230.2955409205724
 30
0.0
 10
52.37397795167272
 20
230.2955409205724
 30
0.0
 10
47.83664982338177
 20
230.2955409205724
 30
0.0
 10
47.83664982338177
 20
230.2955409205724
 30
0.0
 10
47.83664982338177
 20
229.411276228846
 30
0.0
 10
48.29864330564396
 20
228.9345378957705
 30
0.0
 10
49.18688733060117
 20
228.9345378957705
 30
0.0
 10
49.64888081286244
 20
228.9345378957705
 30
0.0
 10
49.98161702461221
 20
229.0894476537232
 30
0.0
 10
50.21806758405546
 20
229.4962634171543
 30
0.0
 10
50.21806758405546
 20
229.4962634171543
 30
0.0
 10
52.29279244779172
 20
229.4962634171543
 30
0.0
 10
52.29279244779172
 20
229.4962634171543
 30
0.0
 10
51.9470168137559
 20
228.0535774718174
 30
0.0
 10
50.58359776520683
 20
227.3976270242665
 30
0.0
 10
49.19743966961778
 20
227.3976270242665
 30
0.0
 10
47.18276010196951
 20
227.3976270242665
 30
0.0
 10
45.67779048560169
 20
228.5419340367398
 30
0.0
 10
45.67779048560169
 20
230.6528992566937
 30
0.0
 10
45.67779048560169
 20
232.6930891927395
 30
0.0
 10
47.06533424187
 20
233.9205053182022
 30
0.0
 10
49.04494593541312
 20
233.9205053182022
 30
0.0
 10
51.15313983401029
 20
233.9205053182022
 30
0.0
 10
52.37397795167272
 20
232.6087770698905
 30
0.0
 10
52.37397795167272
 20
230.5206930160193
 30
0.0
 10
52.37397795167272
 20
230.5206930160193
 30
0.0
 10
52.37397795167272
 20
230.2955409205724
 30
0.0
 10
52.37397795167272
 20
230.2955409205724
 30
0.0
  0
SPLINE
  5
DA
330
70
100
AcDbEntity
  8
moji
 62
    18
420
        0
370
     0
100
AcDbSpline
210
0.0
220
0.0
230
1.0
 70
     9
 71
     3
 72
    17
 73
    13
 74
     0
 42
0.0000000001
 43
0.0000000001
 40
0.0
 40
0.0
 40
0.0
 40
0.0
 40
1.0
 40
1.0
 40
1.0
 40
2.0
 40
2.0
 40
2.0
 40
3.0
 40
3.0
 40
3.0
 40
4.0
 40
4.0
 40
4.0
 40
4.0
 10
49.12190339773497
 20
231.5472188707818
 30
0.0
 10
48.49679278273106
 20
231.5472188707818
 30
0.0
 10
47.87168216772625
 20
231.5472188707818
 30
0.0
 10
47.87168216772625
 20
231.5472188707818
 30
0.0
 10
48.00250274772316
 20
232.1804302712944
 30
0.0
 10
48.5234756332411
 20
232.5138820447437
 30
0.0
 10
49.15217475410554
 20
232.5138820447437
 30
0.0
 10
49.73024396554865
 20
232.5138820447437
 30
0.0
 10
50.2669920649505
 20
232.130830724941
 30
0.0
 10
50.37212462774459
 20
231.5472188707818
 30
0.0
 10
50.37212462774459
 20
231.5472188707818
 30
0.0
 10
49.74701401273978
 20
231.5472188707818
 30
0.0
 10
49.12190339773497
 20
231.5472188707818
 30
0.0
  0
SPLINE
  5
DB
330
70
100
AcDbEntity
  8
moji
 62
    18
420
        0
370
     0
100
AcDbSpline
210
0.0
220
0.0
230
1.0
 70
     9
 71
     3
 72
    32
 73
    28
 74
     0
 42
0.0000000001
 43
0.0000000001
 40
0.0
 40
0.0
 40
0.0
 40
0.0
 40
1.0
 40
1.0
 40
1.0
 40
2.0
 40
2.0
 40
2.0
 40
3.0
 40
3.0
 40
3.0
 40
4.0
 40
4.0
 40
4.0
 40
5.0
 40
5.0
 40
5.0
 40
6.0
 40
6.0
 40
6.0
 40
7.0
 40
7.0
 40
7.0
 40
8.0
 40
8.0
 40
8.0
 40
9.0
 40
9.0
 40
9.0
 40
9.0
 10
52.37397795167362
 20
230.5206930160193
 30
0.0
 10
52.37397795167362
 20
232.6087770698905
 30
0.0
 10
51.15313983401029
 20
233.9205053182031
 30
0.0
 10
49.04494593541312
 20
233.9205053182031
 30
0.0
 10
47.06533424187
 20
233.9205053182031
 30
0.0
 10
45.67779048560169
 20
232.6930891927395
 30
0.0
 10
45.67779048560169
 20
230.6528992566937
 30
0.0
 10
45.67779048560169
 20
228.5419340367398
 30
0.0
 10
47.18276010196951
 20
227.3976270242665
 30
0.0
 10
49.19743966961869
 20
227.3976270242665
 30
0.0
 10
50.58359776520592
 20
227.3976270242665
 30
0.0
 10
51.9470168137559
 20
228.0535774718174
 30
0.0
 10
52.29279244779172
 20
229.4962634171543
 30
0.0
 10
52.29279244779172
 20
229.4962634171543
 30
0.0
 10
50.21806758405546
 20
229.4962634171543
 30
0.0
 10
50.21806758405546
 20
229.4962634171543
 30
0.0
 10
49.98161702461221
 20
229.0894476537232
 30
0.0
 10
49.64888081286336
 20
228.9345378957714
 30
0.0
 10
49.18688733060117
 20
228.9345378957714
 30
0.0
 10
48.29864330564396
 20
228.9345378957714
 30
0.0
 10
47.83664982338177
 20
229.411276228846
 30
0.0
 10
47.83664982338177
 20
230.2955409205724
 30
0.0
 10
47.83664982338177
 20
230.2955409205724
 30
0.0
 10
52.37397795167362
 20
230.2955409205724
 30
0.0
 10
52.37397795167362
 20
230.2955409205724
 30
0.0
 10
52.37397795167362
 20
230.2955454235471
 30
0.0
 10
52.37397795167362
 20
230.5206885130447
 30
0.0
 10
52.37397795167362
 20
230.5206930159511
 30
0.0
  0
SPLINE
  5
DC
330
70
100
AcDbEntity
  8
moji
 62
    18
420
        0
370
     0
100
AcDbSpline
210
0.0
220
0.0
230
1.0
 70
     9
 71
     3
 72
    17
 73
    13
 74
     0
 42
0.0000000001
 43
0.0000000001
 40
0.0
 40
0.0
 40
0.0
 40
0.0
 40
1.0
 40
1.0
 40
1.0
 40
2.0
 40
2.0
 40
2.0
 40
3.0
 40
3.0
 40
3.0
 40
4.0
 40
4.0
 40
4.0
 40
4.0
 10
40.06259599790519
 20
230.6528992566937
 30
0.0
 10
40.06259599790519
 20
231.4049577077449
 30
0.0
 10
40.57141770516227
 20
232.0364636797294
 30
0.0
 10
41.44839879588471
 20
232.0364636797294
 30
0.0
 10
42.32484694019058
 20
232.0364636797294
 30
0.0
 10
42.83455689147285
 20
231.4049577077449
 30
0.0
 10
42.83455689147285
 20
230.6528992566937
 30
0.0
 10
42.83455689147285
 20
229.8777819907546
 30
0.0
 10
42.32484694019058
 20
229.2794252857811
 30
0.0
 10
41.44839879588471
 20
229.2794252857811
 30
0.0
 10
40.57141770516227
 20
229.2794252857811
 30
0.0
 10
40.06259599790519
 20
229.8777819907546
 30
0.0
 10
40.06259599790519
 20
230.6528992566937
 30
0.0
  0
SPLINE
  5
DD
330
70
100
AcDbEntity
  8
moji
 62
    18
420
        0
370
     0
100
AcDbSpline
210
0.0
220
0.0
230
1.0
 70
     9
 71
     3
 72
    98
 73
    94
 74
     0
 42
0.0000000001
 43
0.0000000001
 40
0.0
 40
0.0
 40
0.0
 40
0.0
 40
1.0
 40
1.0
 40
1.0
 40
2.0
 40
2.0
 40
2.0
 40
3.0
 40
3.0
 40
3.0
 40
4.0
 40
4.0
 40
4.0
 40
5.0
 40
5.0
 40
5.0
 40
6.0
 40
6.0
 40
6.0
 40
7.0
 40
7.0
 40
7.0
 40
8.0
 40
8.0
 40
8.0
 40
9.0
 40
9.0
 40
9.0
 40
10.0
 40
10.0
 40
10.0
 40
11.0
 40
11.0
 40
11.0
 40
12.0
 40
12.0
 40
12.0
 40
13.0
 40
13.0
 40
13.0
 40
14.0
 40
14.0
 40
14.0
 40
15.0
 40
15.0
 40
15.0
 40
16.0
 40
16.0
 40
16.0
 40
17.0
 40
17.0
 40
17.0
 40
18.0
 40
18.0
 40
18.0
 40
19.0
 40
19.0
 40
19.0
 40
20.0
 40
20.0
 40
20.0
 40
21.0
 40
21.0
 40
21.0
 40
22.0
 40
22.0
 40
22.0
 40
23.0
 40
23.0
 40
23.0
 40
24.0
 40
24.0
 40
24.0
 40
25.0
 40
25.0
 40
25.0
 40
26.0
 40
26.0
 40
26.0
 40
27.0
 40
27.0
 40
27.0
 40
28.0
 40
28.0
 40
28.0
 40
29.0
 40
29.0
 40
29.0
 40
30.0
 40
30.0
 40
30.0
 40
31.0
 40
31.0
 40
31.0
 40
31.0
 10
45.06053194777814
 20
230.6652280837598
 30
0.0
 10
45.06053194777814
 20
232.4193323842473
 30
0.0
 10
43.81734561044686
 20
233.9205053182031
 30
0.0
 10
42.01829616229679
 20
233.9205053182031
 30
0.0
 10
41.31690408296435
 20
233.9205053182031
 30
0.0
 10
40.59518711527016
 20
233.6581840907375
 30
0.0
 10
40.1325185675505
 20
233.1214409731638
 30
0.0
 10
40.1325185675505
 20
233.1214409731638
 30
0.0
 10
40.1325185675505
 20
237.4986314868056
 30
0.0
 10
40.1325185675505
 20
237.4986314868056
 30
0.0
 10
40.1325185675505
 20
237.4986314868056
 30
0.0
 10
39.59319477250483
 20
237.4986314868056
 30
0.0
 10
39.05387097746007
 20
237.4986314868056
 30
0.0
 10
38.5145471824153
 20
237.4986314868056
 30
0.0
 10
37.97522338737053
 20
237.4986314868056
 30
0.0
 10
37.97522338737053
 20
237.4986314868056
 30
0.0
 10
37.97522338737053
 20
237.4986314868056
 30
0.0
 10
37.97522338737053
 20
236.8798429318176
 30
0.0
 10
37.97522338737053
 20
235.951703414531
 30
0.0
 10
37.97522338737053
 20
235.0237123787638
 30
0.0
 10
37.97522338737053
 20
233.786469351221
 30
0.0
 10
37.97522338737053
 20
232.5492634391203
 30
0.0
 10
37.97522338737053
 20
231.9306604831063
 30
0.0
 10
37.97522338737053
 20
231.3120668059519
 30
0.0
 10
37.97522338737053
 20
230.7321435460544
 30
0.0
 10
37.97522338737053
 20
230.1522202861333
 30
0.0
 10
37.97522338737053
 20
229.6109674434701
 30
0.0
 10
37.97522338737053
 20
229.1470461564649
 30
0.0
 10
37.97522338737053
 20
228.9150855129628
 30
0.0
 10
37.97522338737053
 20
228.7024577583752
 30
0.0
 10
37.97522338737053
 20
228.5139955350023
 30
0.0
 10
37.97522338737053
 20
228.3255333116031
 30
0.0
 10
37.97522338737053
 20
228.1612366194258
 30
0.0
 10
37.97522338737053
 20
228.02593810077
 30
0.0
 10
37.97522338737053
 20
227.9582888414707
 30
0.0
 10
37.97522338737053
 20
227.8978891255456
 30
0.0
 10
37.97522338737053
 20
227.8453430332829
 30
0.0
 10
37.97522338737053
 20
227.7927969410048
 30
0.0
 10
37.97522338737053
 20
227.7481044723936
 30
0.0
 10
37.97522338737053
 20
227.7118697077358
 30
0.0
 10
37.97522338737053
 20
227.6937523254073
 30
0.0
 10
37.97522338737053
 20
227.6777493690661
 30
0.0
 10
37.97522338737053
 20
227.6639363487502
 30
0.0
 10
37.97522338737053
 20
227.6501233284343
 30
0.0
 10
37.97522338737053
 20
227.6385002441421
 30
0.0
 10
37.97522338737053
 20
227.6291426059106
 30
0.0
 10
37.97522338825184
 20
227.600786197655
 30
0.0
 10
37.97522338737053
 20
227.600786197655
 30
0.0
 10
37.97522338737053
 20
227.600786197655
 30
0.0
 10
37.97522338737053
 20
227.600786197655
 30
0.0
 10
37.97522338737053
 20
227.6007873839808
 30
0.0
 10
37.97522338737053
 20
227.6007897558093
 30
0.0
 10
37.97526698010461
 20
227.600786197655
 30
0.0
 10
38.51459055151372
 20
227.600786197655
 30
0.0
 10
39.05390333688774
 20
227.600786197655
 30
0.0
 10
39.59321634524167
 20
227.600786197655
 30
0.0
 10
40.1325185675505
 20
227.600786197655
 30
0.0
 10
40.1325185675505
 20
227.600786197655
 30
0.0
 10
40.1325185675505
 20
227.600786197655
 30
0.0
 10
40.1325185675505
 20
227.6007868447369
 30
0.0
 10
40.1325185675505
 20
227.6007881376354
 30
0.0
 10
40.1325185675505
 20
227.6211606461411
 30
0.0
 10
40.1325185675505
 20
227.6253017981071
 30
0.0
 10
40.1325185675505
 20
227.629939890432
 30
0.0
 10
40.1325185675505
 20
227.6392160750056
 30
0.0
 10
40.1325185675505
 20
227.6504800209778
 30
0.0
 10
40.1325185675505
 20
227.66340044362
 30
0.0
 10
40.1325185675505
 20
227.676320866316
 30
0.0
 10
40.1325185675505
 20
227.6908977656931
 30
0.0
 10
40.1325185675505
 20
227.7067998570183
 30
0.0
 10
40.1325185675505
 20
227.738604039605
 30
0.0
 10
40.1325185675505
 20
227.7757089899578
 30
0.0
 10
40.1325185675505
 20
227.8154644302085
 30
0.0
 10
40.1325185675505
 20
227.8552198704892
 30
0.0
 10
40.1325185675505
 20
227.8976258006697
 30
0.0
 10
40.1325185675505
 20
227.9400319428769
 30
0.0
 10
40.1325185675505
 20
228.0248442272841
 30
0.0
 10
40.1325185675505
 20
228.109657359797
 30
0.0
 10
40.1325185675505
 20
228.1732691174193
 30
0.0
 10
40.1325185675505
 20
228.2368859640865
 30
0.0
 10
40.1325185675505
 20
228.2792980434397
 30
0.0
 10
40.1325185675505
 20
228.2792980434397
 30
0.0
 10
40.1325185675505
 20
228.2792980434397
 30
0.0
 10
40.13251892655444
 20
228.2792980434397
 30
0.0
 10
40.13251964177288
 20
228.2792980434397
 30
0.0
 10
40.1548019735319
 20
228.2792980434397
 30
0.0
 10
40.15628797765839
 20
228.2792980434397
 30
0.0
 10
40.15628797765839
 20
228.2792980434397
 30
0.0
 10
40.54764829505529
 20
227.6698205232742
 30
0.0
 10
41.28201292512858
 20
227.3976270242665
 30
0.0
 10
41.99470440099412
 20
227.3976270242665
 30
0.0
 10
43.80675774166957
 20
227.3976270242665
 30
0.0
 10
45.06053194777814
 20
228.8995055514261
 30
0.0
 10
45.06053194777814
 20
230.6652280837598
 30
0.0
  0
SPLINE
  5
DE
330
70
100
AcDbEntity
  8
moji
 62
    18
420
        0
370
     0
100
AcDbSpline
210
0.0
220
0.0
230
1.0
 70
     9
 71
     3
 72
    17
 73
    13
 74
     0
 42
0.0000000001
 43
0.0000000001
 40
0.0
 40
0.0
 40
0.0
 40
0.0
 40
1.0
 40
1.0
 40
1.0
 40
2.0
 40
2.0
 40
2.0
 40
3.0
 40
3.0
 40
3.0
 40
4.0
 40
4.0
 40
4.0
 40
4.0
 10
32.26896597808354
 20
230.6528992566937
 30
0.0
 10
32.26896597808354
 20
231.4049577077449
 30
0.0
 10
32.77689945414659
 20
232.0364636797294
 30
0.0
 10
33.65316997178434
 20
232.0364636797294
 30
0.0
 10
34.53050638227978
 20
232.0364636797294
 30
0.0
 10
35.03794244167603
 20
231.4049577077449
 30
0.0
 10
35.03794244167603
 20
230.6528992566937
 30
0.0
 10
35.03794244167603
 20
229.8777819907546
 30
0.0
 10
34.53050638227978
 20
229.2794252857811
 30
0.0
 10
33.65316997178434
 20
229.2794252857811
 30
0.0
 10
32.77689945414659
 20
229.2794252857811
 30
0.0
 10
32.26896597808354
 20
229.8777819907546
 30
0.0
 10
32.26896597808354
 20
230.6528992566937
 30
0.0
  0
SPLINE
  5
DF
330
70
100
AcDbEntity
  8
moji
 62
    18
420
        0
370
     0
100
AcDbSpline
210
0.0
220
0.0
230
1.0
 70
     9
 71
     3
 72
    95
 73
    91
 74
     0
 42
0.0000000001
 43
0.0000000001
 40
0.0
 40
0.0
 40
0.0
 40
0.0
 40
1.0
 40
1.0
 40
1.0
 40
2.0
 40
2.0
 40
2.0
 40
3.0
 40
3.0
 40
3.0
 40
4.0
 40
4.0
 40
4.0
 40
5.0
 40
5.0
 40
5.0
 40
6.0
 40
6.0
 40
6.0
 40
7.0
 40
7.0
 40
7.0
 40
8.0
 40
8.0
 40
8.0
 40
9.0
 40
9.0
 40
9.0
 40
10.0
 40
10.0
 40
10.0
 40
11.0
 40
11.0
 40
11.0
 40
12.0
 40
12.0
 40
12.0
 40
13.0
 40
13.0
 40
13.0
 40
14.0
 40
14.0
 40
14.0
 40
15.0
 40
15.0
 40
15.0
 40
16.0
 40
16.0
 40
16.0
 40
17.0
 40
17.0
 40
17.0
 40
18.0
 40
18.0
 40
18.0
 40
19.0
 40
19.0
 40
19.0
 40
20.0
 40
20.0
 40
20.0
 40
21.0
 40
21.0
 40
21.0
 40
22.0
 40
22.0
 40
22.0
 40
23.0
 40
23.0
 40
23.0
 40
24.0
 40
24.0
 40
24.0
 40
25.0
 40
25.0
 40
25.0
 40
26.0
 40
26.0
 40
26.0
 40
27.0
 40
27.0
 40
27.0
 40
28.0
 40
28.0
 40
28.0
 40
29.0
 40
29.0
 40
29.0
 40
30.0
 40
30.0
 40
30.0
 40
30.0
 10
37.12531595305882
 20
229.5365770187755
 30
0.0
 10
37.12531595305882
 20
230.6119131278602
 30
0.0
 10
37.12531595305882
 20
231.9022682860996
 30
0.0
 10
37.12531595305882
 20
232.7624821183054
 30
0.0
 10
37.12531595305882
 20
232.9775355763568
 30
0.0
 10
37.12531595305882
 20
233.1657052015307
 30
0.0
 10
37.12531595305882
 20
233.3169103629662
 30
0.0
 10
37.12531595305882
 20
233.4681155244016
 30
0.0
 10
37.12531595305882
 20
233.5823562220976
 30
0.0
 10
37.12531595305882
 20
233.6495518251914
 30
0.0
 10
37.12531595305882
 20
233.6663507259645
 30
0.0
 10
37.12531595305882
 20
233.6802093083261
 30
0.0
 10
37.12531595305882
 20
233.6909700624165
 30
0.0
 10
37.12531595305882
 20
233.7017308165077
 30
0.0
 10
37.12531595305882
 20
233.7093937423297
 30
0.0
 10
37.12531595305882
 20
233.7138013300237
 30
0.0
 10
37.12531595305882
 20
233.718227182052
 30
0.0
 10
37.12531595305882
 20
233.7182293868236
 30
0.0
 10
37.12531595305882
 20
233.7182293868236
 30
0.0
 10
37.12531595305882
 20
233.7182293868236
 30
0.0
 10
37.12531541743192
 20
233.7182293868236
 30
0.0
 10
37.12531434671018
 20
233.7182293868236
 30
0.0
 10
37.1129993943814
 20
233.7182293868236
 30
0.0
 10
37.10243141595493
 20
233.7182293868236
 30
0.0
 10
37.08786417380088
 20
233.7182293868236
 30
0.0
 10
37.07329693162683
 20
233.7182293868236
 30
0.0
 10
37.05473042571703
 20
233.7182293868236
 30
0.0
 10
37.03260901870635
 20
233.7182293868236
 30
0.0
 10
36.94412339080009
 20
233.7182293868236
 30
0.0
 10
36.7987593454709
 20
233.7182293868236
 30
0.0
 10
36.62495609142479
 20
233.7182293868236
 30
0.0
 10
36.45115283732593
 20
233.7182293868236
 30
0.0
 10
36.24891037449379
 20
233.7182293868236
 30
0.0
 10
36.04666791166255
 20
233.7182293868236
 30
0.0
 10
35.84442544883132
 20
233.7182293868236
 30
0.0
 10
35.64218298599917
 20
233.7182293868236
 30
0.0
 10
35.46837973190032
 20
233.7182293868236
 30
0.0
 10
35.29457647780237
 20
233.7182293868236
 30
0.0
 10
35.1492124324368
 20
233.7182293868236
 30
0.0
 10
35.06072680453781
 20
233.7182293868236
 30
0.0
 10
35.0386053975626
 20
233.7182293868236
 30
0.0
 10
35.02003889168009
 20
233.7182293868236
 30
0.0
 10
35.00547164952422
 20
233.7182293868236
 30
0.0
 10
34.96801987026629
 20
233.7182291717363
 30
0.0
 10
34.96801987026629
 20
233.7182293868236
 30
0.0
 10
34.96801987026629
 20
233.7182293868236
 30
0.0
 10
34.96801987026629
 20
233.7182293868236
 30
0.0
 10
34.96802313764238
 20
233.7182293868236
 30
0.0
 10
34.96802966435189
 20
233.7182293868236
 30
0.0
 10
34.96801987026629
 20
233.7049742525232
 30
0.0
 10
34.96801987026629
 20
233.6938294780739
 30
0.0
 10
34.96801987026629
 20
233.6790786278852
 30
0.0
 10
34.96801987026629
 20
233.6643277776075
 30
0.0
 10
34.96801987026629
 20
233.6459708515477
 30
0.0
 10
34.96801987026629
 20
233.6249912676986
 30
0.0
 10
34.96801987026629
 20
233.541072932464
 30
0.0
 10
34.96801987026629
 20
233.4151920727991
 30
0.0
 10
34.96801987026629
 20
233.3102874401584
 30
0.0
 10
34.96801987026629
 20
233.2053744149416
 30
0.0
 10
34.96801987026629
 20
233.1214409731638
 30
0.0
 10
34.96801987026629
 20
233.1214409731638
 30
0.0
 10
34.51938556680671
 20
233.6581840907375
 30
0.0
 10
33.78381290627567
 20
233.9205053182031
 30
0.0
 10
33.0836278885945
 20
233.9205053182031
 30
0.0
 10
31.28319273428224
 20
233.9205053182031
 30
0.0
 10
30.03879835364114
 20
232.4193323842473
 30
0.0
 10
30.03879835364114
 20
230.6652280837598
 30
0.0
 10
30.03879835364114
 20
228.9125094439523
 30
0.0
 10
31.30785038903741
 20
227.3976270242665
 30
0.0
 10
33.10739729930174
 20
227.3976270242665
 30
0.0
 10
33.81991114436187
 20
227.3976270242665
 30
0.0
 10
34.56486366203353
 20
227.6698205232742
 30
0.0
 10
34.94549400122378
 20
228.2792980434397
 30
0.0
 10
34.94549400122378
 20
228.2792980434397
 30
0.0
 10
34.96801941975082
 20
228.2792980434397
 30
0.0
 10
34.96801987025901
 20
228.2792980434397
 30
0.0
 10
34.96801987026629
 20
228.2792980434397
 30
0.0
 10
34.96801987026629
 20
228.1096700819935
 30
0.0
 10
34.96801987026629
 20
227.9400421205464
 30
0.0
 10
34.96801987026629
 20
227.7704141591012
 30
0.0
 10
34.96801987026629
 20
227.600786197655
 30
0.0
 10
34.96801987026629
 20
227.600786197655
 30
0.0
 10
34.96801987026629
 20
227.600786197655
 30
0.0
 10
35.50734389096397
 20
227.600786197655
 30
0.0
 10
36.04666791166255
 20
227.600786197655
 30
0.0
 10
36.58599193236023
 20
227.600786197655
 30
0.0
 10
37.12531595305882
 20
227.600786197655
 30
0.0
 10
37.12531595305882
 20
227.600786197655
 30
0.0
 10
37.12531595305882
 20
227.600786197655
 30
0.0
 10
37.12531595305882
 20
228.4611548810826
 30
0.0
 10
37.12531595305882
 20
229.5365770187755
 30
0.0
  0
SPLINE
  5
E0
330
70
100
AcDbEntity
  8
moji
 62
    18
420
        0
370
     0
100
AcDbSpline
210
0.0
220
0.0
230
1.0
 70
     9
 71
     3
 72
   173
 73
   169
 74
     0
 42
0.0000000001
 43
0.0000000001
 40
0.0
 40
0.0
 40
0.0
 40
0.0
 40
1.0
 40
1.0
 40
1.0
 40
2.0
 40
2.0
 40
2.0
 40
3.0
 40
3.0
 40
3.0
 40
4.0
 40
4.0
 40
4.0
 40
5.0
 40
5.0
 40
5.0
 40
6.0
 40
6.0
 40
6.0
 40
7.0
 40
7.0
 40
7.0
 40
8.0
 40
8.0
 40
8.0
 40
9.0
 40
9.0
 40
9.0
 40
10.0
 40
10.0
 40
10.0
 40
11.0
 40
11.0
 40
11.0
 40
12.0
 40
12.0
 40
12.0
 40
13.0
 40
13.0
 40
13.0
 40
14.0
 40
14.0
 40
14.0
 40
15.0
 40
15.0
 40
15.0
 40
16.0
 40
16.0
 40
16.0
 40
17.0
 40
17.0
 40
17.0
 40
18.0
 40
18.0
 40
18.0
 40
19.0
 40
19.0
 40
19.0
 40
20.0
 40
20.0
 40
20.0
 40
21.0
 40
21.0
 40
21.0
 40
22.0
 40
22.0
 40
22.0
 40
23.0
 40
23.0
 40
23.0
 40
24.0
 40
24.0
 40
24.0
 40
25.0
 40
25.0
 40
25.0
 40
26.0
 40
26.0
 40
26.0
 40
27.0
 40
27.0
 40
27.0
 40
28.0
 40
28.0
 40
28.0
 40
29.0
 40
29.0
 40
29.0
 40
30.0
 40
30.0
 40
30.0
 40
31.0
 40
31.0
 40
31.0
 40
32.0
 40
32.0
 40
32.0
 40
33.0
 40
33.0
 40
33.0
 40
34.0
 40
34.0
 40
34.0
 40
35.0
 40
35.0
 40
35.0
 40
36.0
 40
36.0
 40
36.0
 40
37.0
 40
37.0
 40
37.0
 40
38.0
 40
38.0
 40
38.0
 40
39.0
 40
39.0
 40
39.0
 40
40.0
 40
40.0
 40
40.0
 40
41.0
 40
41.0
 40
41.0
 40
42.0
 40
42.0
 40
42.0
 40
43.0
 40
43.0
 40
43.0
 40
44.0
 40
44.0
 40
44.0
 40
45.0
 40
45.0
 40
45.0
 40
46.0
 40
46.0
 40
46.0
 40
47.0
 40
47.0
 40
47.0
 40
48.0
 40
48.0
 40
48.0
 40
49.0
 40
49.0
 40
49.0
 40
50.0
 40
50.0
 40
50.0
 40
51.0
 40
51.0
 40
51.0
 40
52.0
 40
52.0
 40
52.0
 40
53.0
 40
53.0
 40
53.0
 40
54.0
 40
54.0
 40
54.0
 40
55.0
 40
55.0
 40
55.0
 40
56.0
 40
56.0
 40
56.0
 40
56.0
 10
25.21922168222591
 20
232.7524238936057
 30
0.0
 10
24.77819074781292
 20
233.5626090336518
 30
0.0
 10
24.0230411884786
 20
233.9205053182031
 30
0.0
 10
23.14520736131635
 20
233.9205053182031
 30
0.0
 10
22.36223799841718
 20
233.9205053182031
 30
0.0
 10
21.73442710571635
 20
233.6340593830191
 30
0.0
 10
21.22471714155836
 20
232.9534868110959
 30
0.0
 10
21.22471714155836
 20
232.9534868110959
 30
0.0
 10
21.20197854872367
 20
232.9534868110959
 30
0.0
 10
21.20197809395268
 20
232.9534868110959
 30
0.0
 10
21.2019780939454
 20
232.9534868110959
 30
0.0
 10
21.2019780939454
 20
233.0281896156503
 30
0.0
 10
21.2019780939454
 20
233.1308994354176
 30
0.0
 10
21.2019780939454
 20
233.2335928239136
 30
0.0
 10
21.2019780939454
 20
233.3642842673489
 30
0.0
 10
21.2019780939454
 20
233.476300383637
 30
0.0
 10
21.2019780939454
 20
233.5323084417823
 30
0.0
 10
21.2019780939454
 20
233.5836476681397
 30
0.0
 10
21.2019780939454
 20
233.6244838899502
 30
0.0
 10
21.2019780939454
 20
233.6653201117597
 30
0.0
 10
21.2019780939454
 20
233.6956533290222
 30
0.0
 10
21.2019780939454
 20
233.7096493689778
 30
0.0
 10
21.2019780939454
 20
233.7182288669828
 30
0.0
 10
21.2019780939454
 20
233.7182293868236
 30
0.0
 10
21.2019780939454
 20
233.7182293868236
 30
0.0
 10
21.2019780939454
 20
233.7182293868236
 30
0.0
 10
21.20197775532688
 20
233.7182293868236
 30
0.0
 10
21.20197707835723
 20
233.7182293868236
 30
0.0
 10
21.17459397756466
 20
233.7182293868236
 30
0.0
 10
21.16294643435049
 20
233.7182293868236
 30
0.0
 10
21.1486248382671
 20
233.7182293868236
 30
0.0
 10
21.11998164610032
 20
233.7182293868236
 30
0.0
 10
21.080642242453
 20
233.7182293868236
 30
0.0
 10
21.03266369234552
 20
233.7182293868236
 30
0.0
 10
20.98468514223714
 20
233.7182293868236
 30
0.0
 10
20.92806744566769
 20
233.7182293868236
 30
0.0
 10
20.86486766765665
 20
233.7182293868236
 30
0.0
 10
20.61206855561341
 20
233.7182293868236
 30
0.0
 10
20.2539561404974
 20
233.7182293868236
 30
0.0
 10
19.92218258353387
 20
233.7182293868236
 30
0.0
 10
19.59040902656943
 20
233.7182293868236
 30
0.0
 10
19.28497432775657
 20
233.7182293868236
 30
0.0
 10
19.1375306483178
 20
233.7182293868236
 30
0.0
 10
19.11910018838807
 20
233.7182293868236
 30
0.0
 10
19.10313833813507
 20
233.7182293868236
 30
0.0
 10
19.08990223068758
 20
233.7182293868236
 30
0.0
 10
19.0766661231828
 20
233.7182293868236
 30
0.0
 10
19.06615575850719
 20
233.7182293868236
 30
0.0
 10
19.05862826979046
 20
233.7182293868236
 30
0.0
 10
19.04486588633608
 20
233.7182293868236
 30
0.0
 10
19.04485965996082
 20
233.7182293868236
 30
0.0
 10
19.04485965996082
 20
233.7182293868236
 30
0.0
 10
19.04485965996082
 20
233.7182293868236
 30
0.0
 10
19.04485965996082
 20
233.7182292800971
 30
0.0
 10
19.04485965996082
 20
233.7182290666733
 30
0.0
 10
19.04485965996082
 20
233.6717254478326
 30
0.0
 10
19.04485965996082
 20
233.607778555006
 30
0.0
 10
19.04485965996082
 20
233.5146631701455
 30
0.0
 10
19.04485965996082
 20
233.4215477851931
 30
0.0
 10
19.04485965996082
 20
233.2992639081512
 30
0.0
 10
19.04485965996082
 20
233.1536452374367
 30
0.0
 10
19.04485965996082
 20
232.8624078961002
 30
0.0
 10
19.04485965996082
 20
232.477831380138
 30
0.0
 10
19.04485965996082
 20
232.0465852768602
 30
0.0
 10
19.04485965996082
 20
231.615339173537
 30
0.0
 10
19.04485965996082
 20
231.1374234828881
 30
0.0
 10
19.04485965996082
 20
230.6595077922402
 30
0.0
 10
19.04485965996082
 20
230.1815921015905
 30
0.0
 10
19.04485965996082
 20
229.7036764109416
 30
0.0
 10
19.04485965996082
 20
229.2724303076184
 30
0.0
 10
19.04485965996082
 20
228.8411842042679
 30
0.0
 10
19.04485965996082
 20
228.4566076882474
 30
0.0
 10
19.04485965996082
 20
228.1653703468937
 30
0.0
 10
19.04485965996082
 20
228.0197516762455
 30
0.0
 10
19.04485965996082
 20
227.8974677992528
 30
0.0
 10
19.04485965996082
 20
227.8043524143322
 30
0.0
 10
19.04485965996082
 20
227.7112370293998
 30
0.0
 10
19.04485965996082
 20
227.6472901365469
 30
0.0
 10
19.04485965996082
 20
227.6183454341863
 30
0.0
 10
19.06615575859905
 20
227.600786197655
 30
0.0
 10
19.07666612324192
 20
227.600786197655
 30
0.0
 10
19.08990223068758
 20
227.600786197655
 30
0.0
 10
19.10313833815235
 20
227.600786197655
 30
0.0
 10
19.11910018842809
 20
227.600786197655
 30
0.0
 10
19.13753064838693
 20
227.600786197655
 30
0.0
 10
19.28497432785298
 20
227.600786197655
 30
0.0
 10
19.59040902662127
 20
227.600786197655
 30
0.0
 10
19.92218258353387
 20
227.600786197655
 30
0.0
 10
20.2539561404974
 20
227.600786197655
 30
0.0
 10
20.61206855561341
 20
227.600786197655
 30
0.0
 10
20.86486766765665
 20
227.600786197655
 30
0.0
 10
20.92806744566769
 20
227.600786197655
 30
0.0
 10
20.98468514223714
 20
227.600786197655
 30
0.0
 10
21.03266369234552
 20
227.600786197655
 30
0.0
 10
21.080642242453
 20
227.600786197655
 30
0.0
 10
21.11998164610032
 20
227.600786197655
 30
0.0
 10
21.1486248382671
 20
227.600786197655
 30
0.0
 10
21.16294643435049
 20
227.600786197655
 30
0.0
 10
21.17459397756466
 20
227.600786197655
 30
0.0
 10
21.18331033477989
 20
227.600786197655
 30
0.0
 10
21.2019780939454
 20
227.6007863315635
 30
0.0
 10
21.2019780939454
 20
227.600786197655
 30
0.0
 10
21.2019780939454
 20
227.600786197655
 30
0.0
 10
21.2019780939454
 20
227.600786197655
 30
0.0
 10
21.2019770328061
 20
227.600786197655
 30
0.0
 10
21.20197491201543
 20
227.600786197655
 30
0.0
 10
21.2019780939454
 20
227.6211609354041
 30
0.0
 10
21.2019780939454
 20
227.6268661645708
 30
0.0
 10
21.2019780939454
 20
227.6335460484215
 30
0.0
 10
21.2019780939454
 20
227.6869851190468
 30
0.0
 10
21.2019780939454
 20
227.8028020889642
 30
0.0
 10
21.2019780939454
 20
227.9587211736871
 30
0.0
 10
21.2019780939454
 20
228.1146402584873
 30
0.0
 10
21.2019780939454
 20
228.3106614581356
 30
0.0
 10
21.2019780939454
 20
228.52450898811
 30
0.0
 10
21.2019780939454
 20
228.9522040479687
 30
0.0
 10
21.2019780939454
 20
229.4512044291023
 30
0.0
 10
21.2019780939454
 20
229.843303855454
 30
0.0
 10
21.2019780939454
 20
230.2354660189967
 30
0.0
 10
21.2019780939454
 20
230.5206930160193
 30
0.0
 10
21.2019780939454
 20
230.5206930160193
 30
0.0
 10
21.2019780939454
 20
231.2014787665075
 30
0.0
 10
21.2019780939454
 20
232.238201662678
 30
0.0
 10
22.16032236156298
 20
232.238201662678
 30
0.0
 10
23.12126030179843
 20
232.238201662678
 30
0.0
 10
23.12126030179843
 20
231.2014787665075
 30
0.0
 10
23.12126030179843
 20
230.5206930160193
 30
0.0
 10
23.12126030179843
 20
230.5206930160193
 30
0.0
 10
23.12126030179843
 20
227.600786197655
 30
0.0
 10
23.12126030179843
 20
227.600786197655
 30
0.0
 10
23.12126030179843
 20
227.600786197655
 30
0.0
 10
23.66027343707992
 20
227.600786197655
 30
0.0
 10
24.19928657236324
 20
227.600786197655
 30
0.0
 10
24.73829970764473
 20
227.600786197655
 30
0.0
 10
25.27731284292622
 20
227.600786197655
 30
0.0
 10
25.27731284292622
 20
227.600786197655
 30
0.0
 10
25.27731284292622
 20
227.600786197655
 30
0.0
 10
25.27731284292622
 20
228.3307629022456
 30
0.0
 10
25.27731284292622
 20
229.0607396068371
 30
0.0
 10
25.27731284292622
 20
229.7907163114287
 30
0.0
 10
25.27731284292622
 20
230.5206930160193
 30
0.0
 10
25.27731284292622
 20
230.5206930160193
 30
0.0
 10
25.27731284292622
 20
231.2486672236328
 30
0.0
 10
25.31376637863104
 20
232.1915510864865
 30
0.0
 10
26.30973666409773
 20
232.1915510864865
 30
0.0
 10
27.22192777101191
 20
232.1915510864865
 30
0.0
 10
27.19798071149308
 20
231.154117595097
 30
0.0
 10
27.19798071149308
 20
230.5206930160193
 30
0.0
 10
27.19798071149308
 20
230.5206930160193
 30
0.0
 10
27.19798071149308
 20
227.600786197655
 30
0.0
 10
27.19798071149308
 20
227.600786197655
 30
0.0
 10
27.19798071149308
 20
227.600786197655
 30
0.0
 10
27.73717149558525
 20
227.600786197655
 30
0.0
 10
28.27636227967651
 20
227.600786197655
 30
0.0
 10
28.81555306376867
 20
227.600786197655
 30
0.0
 10
29.35474384785994
 20
227.600786197655
 30
0.0
 10
29.35474384785994
 20
227.600786197655
 30
0.0
 10
29.35474384785994
 20
227.600786197655
 30
0.0
 10
29.35474384785994
 20
228.5755553082999
 30
0.0
 10
29.35474384785994
 20
229.5503244189458
 30
0.0
 10
29.35474384785994
 20
230.5250935295908
 30
0.0
 10
29.35474384785994
 20
231.4998626402366
 30
0.0
 10
29.35474384785994
 20
231.4998626402366
 30
0.0
 10
29.35474384785994
 20
232.9073336515594
 30
0.0
 10
28.82197506823104
 20
233.9205053182031
 30
0.0
 10
27.27934386623565
 20
233.9205053182031
 30
0.0
 10
26.45043452120535
 20
233.9205053182031
 30
0.0
 10
25.63417377140922
 20
233.5150702134352
 30
0.0
 10
25.21922168222591
 20
232.7524238936057
 30
0.0
  0
SPLINE
  5
E1
330
70
100
AcDbEntity
  8
moji
100
AcDbSpline
210
0.0
220
0.0
230
1.0
 70
     9
 71
     3
 72
   176
 73
   172
 74
     0
 42
0.0000000001
 43
0.0000000001
 40
0.0
 40
0.0
 40
0.0
 40
0.0
 40
1.0
 40
1.0
 40
1.0
 40
2.0
 40
2.0
 40
2.0
 40
3.0
 40
3.0
 40
3.0
 40
4.0
 40
4.0
 40
4.0
 40
5.0
 40
5.0
 40
5.0
 40
6.0
 40
6.0
 40
6.0
 40
7.0
 40
7.0
 40
7.0
 40
8.0
 40
8.0
 40
8.0
 40
9.0
 40
9.0
 40
9.0
 40
10.0
 40
10.0
 40
10.0
 40
11.0
 40
11.0
 40
11.0
 40
12.0
 40
12.0
 40
12.0
 40
13.0
 40
13.0
 40
13.0
 40
14.0
 40
14.0
 40
14.0
 40
15.0
 40
15.0
 40
15.0
 40
16.0
 40
16.0
 40
16.0
 40
17.0
 40
17.0
 40
17.0
 40
18.0
 40
18.0
 40
18.0
 40
19.0
 40
19.0
 40
19.0
 40
20.0
 40
20.0
 40
20.0
 40
21.0
 40
21.0
 40
21.0
 40
22.0
 40
22.0
 40
22.0
 40
23.0
 40
23.0
 40
23.0
 40
24.0
 40
24.0
 40
24.0
 40
25.0
 40
25.0
 40
25.0
 40
26.0
 40
26.0
 40
26.0
 40
27.0
 40
27.0
 40
27.0
 40
28.0
 40
28.0
 40
28.0
 40
29.0
 40
29.0
 40
29.0
 40
30.0
 40
30.0
 40
30.0
 40
31.0
 40
31.0
 40
31.0
 40
32.0
 40
32.0
 40
32.0
 40
33.0
 40
33.0
 40
33.0
 40
34.0
 40
34.0
 40
34.0
 40
35.0
 40
35.0
 40
35.0
 40
36.0
 40
36.0
 40
36.0
 40
37.0
 40
37.0
 40
37.0
 40
38.0
 40
38.0
 40
38.0
 40
39.0
 40
39.0
 40
39.0
 40
40.0
 40
40.0
 40
40.0
 40
41.0
 40
41.0
 40
41.0
 40
42.0
 40
42.0
 40
42.0
 40
43.0
 40
43.0
 40
43.0
 40
44.0
 40
44.0
 40
44.0
 40
45.0
 40
45.0
 40
45.0
 40
46.0
 40
46.0
 40
46.0
 40
47.0
 40
47.0
 40
47.0
 40
48.0
 40
48.0
 40
48.0
 40
49.0
 40
49.0
 40
49.0
 40
50.0
 40
50.0
 40
50.0
 40
51.0
 40
51.0
 40
51.0
 40
52.0
 40
52.0
 40
52.0
 40
53.0
 40
53.0
 40
53.0
 40
54.0
 40
54.0
 40
54.0
 40
55.0
 40
55.0
 40
55.0
 40
56.0
 40
56.0
 40
56.0
 40
57.0
 40
57.0
 40
57.0
 40
57.0
 10
25.21922168222591
 20
232.7524238936057
 30
0.0
 10
24.77819074781292
 20
233.5626090336518
 30
0.0
 10
24.0230411884786
 20
233.9205053182031
 30
0.0
 10
23.14520736131635
 20
233.9205053182031
 30
0.0
 10
22.36223799841718
 20
233.9205053182031
 30
0.0
 10
21.73442710571635
 20
233.6340593830191
 30
0.0
 10
21.22471714155836
 20
232.9534868110959
 30
0.0
 10
21.22471714155836
 20
232.9534868110959
 30
0.0
 10
21.20197854872367
 20
232.9534868110959
 30
0.0
 10
21.20197809395268
 20
232.9534868110959
 30
0.0
 10
21.2019780939454
 20
232.9534868110959
 30
0.0
 10
21.2019780939454
 20
233.0281896156512
 30
0.0
 10
21.2019780939454
 20
233.1308994354176
 30
0.0
 10
21.2019780939454
 20
233.2335928239136
 30
0.0
 10
21.2019780939454
 20
233.3642842673489
 30
0.0
 10
21.2019780939454
 20
233.476300383637
 30
0.0
 10
21.2019780939454
 20
233.5323084417823
 30
0.0
 10
21.2019780939454
 20
233.5836476681397
 30
0.0
 10
21.2019780939454
 20
233.6244838899502
 30
0.0
 10
21.2019780939454
 20
233.6653201117597
 30
0.0
 10
21.2019780939454
 20
233.6956533290222
 30
0.0
 10
21.2019780939454
 20
233.7096493689778
 30
0.0
 10
21.2019780939454
 20
233.7182288669828
 30
0.0
 10
21.2019780939454
 20
233.7182293868236
 30
0.0
 10
21.2019780939454
 20
233.7182293868236
 30
0.0
 10
21.2019780939454
 20
233.7182293868236
 30
0.0
 10
21.20197775532688
 20
233.7182293868236
 30
0.0
 10
21.20197707835723
 20
233.7182293868236
 30
0.0
 10
21.17459397756466
 20
233.7182293868236
 30
0.0
 10
21.16294643435049
 20
233.7182293868236
 30
0.0
 10
21.1486248382671
 20
233.7182293868236
 30
0.0
 10
21.11998164610032
 20
233.7182293868236
 30
0.0
 10
21.080642242453
 20
233.7182293868236
 30
0.0
 10
21.03266369234552
 20
233.7182293868236
 30
0.0
 10
20.98468514223714
 20
233.7182293868236
 30
0.0
 10
20.92806744566769
 20
233.7182293868236
 30
0.0
 10
20.86486766765665
 20
233.7182293868236
 30
0.0
 10
20.61206855561341
 20
233.7182293868236
 30
0.0
 10
20.2539561404974
 20
233.7182293868236
 30
0.0
 10
19.92218258353387
 20
233.7182293868236
 30
0.0
 10
19.59040902656943
 20
233.7182293868236
 30
0.0
 10
19.28497432775657
 20
233.7182293868236
 30
0.0
 10
19.1375306483178
 20
233.7182293868236
 30
0.0
 10
19.11910018838807
 20
233.7182293868236
 30
0.0
 10
19.10313833813507
 20
233.7182293868236
 30
0.0
 10
19.08990223068758
 20
233.7182293868236
 30
0.0
 10
19.0766661231828
 20
233.7182293868236
 30
0.0
 10
19.06615575850719
 20
233.7182293868236
 30
0.0
 10
19.05862826979046
 20
233.7182293868236
 30
0.0
 10
19.04486588633608
 20
233.7182293868236
 30
0.0
 10
19.04485965996082
 20
233.7182293868236
 30
0.0
 10
19.04485965996082
 20
233.7182293868236
 30
0.0
 10
19.04485965996082
 20
233.7182293868236
 30
0.0
 10
19.04485965996082
 20
233.7182292800981
 30
0.0
 10
19.04485965996082
 20
233.7182290666733
 30
0.0
 10
19.04485965996082
 20
233.6717254478326
 30
0.0
 10
19.04485965996082
 20
233.607778555006
 30
0.0
 10
19.04485965996082
 20
233.5146631701455
 30
0.0
 10
19.04485965996082
 20
233.4215477851931
 30
0.0
 10
19.04485965996082
 20
233.2992639081512
 30
0.0
 10
19.04485965996082
 20
233.1536452374367
 30
0.0
 10
19.04485965996082
 20
232.8624078961002
 30
0.0
 10
19.04485965996082
 20
232.477831380138
 30
0.0
 10
19.04485965996082
 20
232.0465852768602
 30
0.0
 10
19.04485965996082
 20
231.615339173537
 30
0.0
 10
19.04485965996082
 20
231.1374234828881
 30
0.0
 10
19.04485965996082
 20
230.6595077922402
 30
0.0
 10
19.04485965996082
 20
230.1815921015905
 30
0.0
 10
19.04485965996082
 20
229.7036764109416
 30
0.0
 10
19.04485965996082
 20
229.2724303076184
 30
0.0
 10
19.04485965996082
 20
228.8411842042679
 30
0.0
 10
19.04485965996082
 20
228.4566076882474
 30
0.0
 10
19.04485965996082
 20
228.1653703468937
 30
0.0
 10
19.04485965996082
 20
228.0197516762455
 30
0.0
 10
19.04485965996082
 20
227.8974677992528
 30
0.0
 10
19.04485965996082
 20
227.8043524143322
 30
0.0
 10
19.04485965996082
 20
227.7112370293998
 30
0.0
 10
19.04485965996082
 20
227.6472901365469
 30
0.0
 10
19.04485965996082
 20
227.6183454341863
 30
0.0
 10
19.06615575859905
 20
227.600786197655
 30
0.0
 10
19.07666612324192
 20
227.600786197655
 30
0.0
 10
19.08990223068758
 20
227.600786197655
 30
0.0
 10
19.10313833815235
 20
227.600786197655
 30
0.0
 10
19.11910018842809
 20
227.600786197655
 30
0.0
 10
19.13753064838693
 20
227.600786197655
 30
0.0
 10
19.28497432785298
 20
227.600786197655
 30
0.0
 10
19.59040902662127
 20
227.600786197655
 30
0.0
 10
19.92218258353387
 20
227.600786197655
 30
0.0
 10
20.2539561404974
 20
227.600786197655
 30
0.0
 10
20.61206855561341
 20
227.600786197655
 30
0.0
 10
20.86486766765665
 20
227.600786197655
 30
0.0
 10
20.92806744566769
 20
227.600786197655
 30
0.0
 10
20.98468514223714
 20
227.600786197655
 30
0.0
 10
21.03266369234552
 20
227.600786197655
 30
0.0
 10
21.080642242453
 20
227.600786197655
 30
0.0
 10
21.11998164610032
 20
227.600786197655
 30
0.0
 10
21.1486248382671
 20
227.600786197655
 30
0.0
 10
21.16294643435049
 20
227.600786197655
 30
0.0
 10
21.17459397756466
 20
227.600786197655
 30
0.0
 10
21.1833103347808
 20
227.600786197655
 30
0.0
 10
21.2019780939454
 20
227.6007863315635
 30
0.0
 10
21.2019780939454
 20
227.600786197655
 30
0.0
 10
21.2019780939454
 20
227.600786197655
 30
0.0
 10
21.2019780939454
 20
227.600786197655
 30
0.0
 10
21.2019770328061
 20
227.600786197655
 30
0.0
 10
21.20197491201543
 20
227.600786197655
 30
0.0
 10
21.2019780939454
 20
227.6211609354041
 30
0.0
 10
21.2019780939454
 20
227.6268661645708
 30
0.0
 10
21.2019780939454
 20
227.6335460484215
 30
0.0
 10
21.2019780939454
 20
227.6869851190477
 30
0.0
 10
21.2019780939454
 20
227.8028020889642
 30
0.0
 10
21.2019780939454
 20
227.9587211736871
 30
0.0
 10
21.2019780939454
 20
228.1146402584873
 30
0.0
 10
21.2019780939454
 20
228.3106614581356
 30
0.0
 10
21.2019780939454
 20
228.52450898811
 30
0.0
 10
21.2019780939454
 20
228.9522040479687
 30
0.0
 10
21.2019780939454
 20
229.4512044291023
 30
0.0
 10
21.2019780939454
 20
229.843303855454
 30
0.0
 10
21.2019780939454
 20
230.2354660189967
 30
0.0
 10
21.2019780939454
 20
230.5206930160193
 30
0.0
 10
21.2019780939454
 20
230.5206930160193
 30
0.0
 10
21.2019780939454
 20
231.2014787665075
 30
0.0
 10
21.2019780939454
 20
232.238201662678
 30
0.0
 10
22.16032236156298
 20
232.238201662678
 30
0.0
 10
23.12126030179843
 20
232.238201662678
 30
0.0
 10
23.12126030179843
 20
231.2014787665075
 30
0.0
 10
23.12126030179843
 20
230.5206930160193
 30
0.0
 10
23.12126030179843
 20
230.5206930160193
 30
0.0
 10
23.12126030179843
 20
227.600786197655
 30
0.0
 10
23.12126030179843
 20
227.600786197655
 30
0.0
 10
23.12126030179843
 20
227.600786197655
 30
0.0
 10
23.66027343707992
 20
227.600786197655
 30
0.0
 10
24.19928657236324
 20
227.600786197655
 30
0.0
 10
24.73829970764473
 20
227.600786197655
 30
0.0
 10
25.27731284292622
 20
227.600786197655
 30
0.0
 10
25.27731284292622
 20
227.600786197655
 30
0.0
 10
25.27731284292622
 20
227.600786197655
 30
0.0
 10
25.27731284292622
 20
228.3307629022456
 30
0.0
 10
25.27731284292622
 20
229.0607396068371
 30
0.0
 10
25.27731284292622
 20
229.7907163114287
 30
0.0
 10
25.27731284292622
 20
230.5206930160193
 30
0.0
 10
25.27731284292622
 20
230.5206930160193
 30
0.0
 10
25.27731284292622
 20
231.2486672236328
 30
0.0
 10
25.31376637863104
 20
232.1915510864865
 30
0.0
 10
26.30973666409773
 20
232.1915510864865
 30
0.0
 10
27.22192777101191
 20
232.1915510864865
 30
0.0
 10
27.19798071149308
 20
231.154117595097
 30
0.0
 10
27.19798071149308
 20
230.5206930160193
 30
0.0
 10
27.19798071149308
 20
230.5206930160193
 30
0.0
 10
27.19798071149308
 20
227.600786197655
 30
0.0
 10
27.19798071149308
 20
227.600786197655
 30
0.0
 10
27.19798071149308
 20
227.600786197655
 30
0.0
 10
27.73717149558525
 20
227.600786197655
 30
0.0
 10
28.27636227967651
 20
227.600786197655
 30
0.0
 10
28.81555306376867
 20
227.600786197655
 30
0.0
 10
29.35474384785994
 20
227.600786197655
 30
0.0
 10
29.35474384785994
 20
227.600786197655
 30
0.0
 10
29.35474384785994
 20
227.600786197655
 30
0.0
 10
29.35474384785994
 20
228.5755553082999
 30
0.0
 10
29.35474384785994
 20
229.5503244189458
 30
0.0
 10
29.35474384785994
 20
230.5250935295908
 30
0.0
 10
29.35474384785994
 20
231.4998626402366
 30
0.0
 10
29.35474384785994
 20
231.4998626402366
 30
0.0
 10
29.35474384785994
 20
232.9073336515594
 30
0.0
 10
28.82197506823104
 20
233.9205053182031
 30
0.0
 10
27.27934386623565
 20
233.9205053182031
 30
0.0
 10
26.45043452120535
 20
233.9205053182031
 30
0.0
 10
25.63417377140922
 20
233.5150702134352
 30
0.0
 10
25.21922168222591
 20
232.7524238936057
 30
0.0
 10
25.21922168222591
 20
232.7524238936057
 30
0.0
 10
25.21922168222591
 20
232.7524238936057
 30
0.0
 10
25.21922168222591
 20
232.7524238936057
 30
0.0
  0
SPLINE
  5
E2
330
70
100
AcDbEntity
  8
moji
100
AcDbSpline
210
0.0
220
0.0
230
1.0
 70
     9
 71
     3
 72
    98
 73
    94
 74
     0
 42
0.0000000001
 43
0.0000000001
 40
0.0
 40
0.0
 40
0.0
 40
0.0
 40
1.0
 40
1.0
 40
1.0
 40
2.0
 40
2.0
 40
2.0
 40
3.0
 40
3.0
 40
3.0
 40
4.0
 40
4.0
 40
4.0
 40
5.0
 40
5.0
 40
5.0
 40
6.0
 40
6.0
 40
6.0
 40
7.0
 40
7.0
 40
7.0
 40
8.0
 40
8.0
 40
8.0
 40
9.0
 40
9.0
 40
9.0
 40
10.0
 40
10.0
 40
10.0
 40
11.0
 40
11.0
 40
11.0
 40
12.0
 40
12.0
 40
12.0
 40
13.0
 40
13.0
 40
13.0
 40
14.0
 40
14.0
 40
14.0
 40
15.0
 40
15.0
 40
15.0
 40
16.0
 40
16.0
 40
16.0
 40
17.0
 40
17.0
 40
17.0
 40
18.0
 40
18.0
 40
18.0
 40
19.0
 40
19.0
 40
19.0
 40
20.0
 40
20.0
 40
20.0
 40
21.0
 40
21.0
 40
21.0
 40
22.0
 40
22.0
 40
22.0
 40
23.0
 40
23.0
 40
23.0
 40
24.0
 40
24.0
 40
24.0
 40
25.0
 40
25.0
 40
25.0
 40
26.0
 40
26.0
 40
26.0
 40
27.0
 40
27.0
 40
27.0
 40
28.0
 40
28.0
 40
28.0
 40
29.0
 40
29.0
 40
29.0
 40
30.0
 40
30.0
 40
30.0
 40
31.0
 40
31.0
 40
31.0
 40
31.0
 10
37.12531595305882
 20
229.5365770187755
 30
0.0
 10
37.12531595305882
 20
230.6119131278602
 30
0.0
 10
37.12531595305882
 20
231.9022682860996
 30
0.0
 10
37.12531595305882
 20
232.7624821183054
 30
0.0
 10
37.12531595305882
 20
232.9775355763568
 30
0.0
 10
37.12531595305882
 20
233.1657052015307
 30
0.0
 10
37.12531595305882
 20
233.3169103629662
 30
0.0
 10
37.12531595305882
 20
233.4681155244016
 30
0.0
 10
37.12531595305882
 20
233.5823562220976
 30
0.0
 10
37.12531595305882
 20
233.6495518251914
 30
0.0
 10
37.12531595305882
 20
233.6663507259645
 30
0.0
 10
37.12531595305882
 20
233.6802093083261
 30
0.0
 10
37.12531595305882
 20
233.6909700624165
 30
0.0
 10
37.12531595305882
 20
233.7017308165077
 30
0.0
 10
37.12531595305882
 20
233.7093937423297
 30
0.0
 10
37.12531595305882
 20
233.7138013300237
 30
0.0
 10
37.12531595305882
 20
233.718227182052
 30
0.0
 10
37.12531595305882
 20
233.7182293868236
 30
0.0
 10
37.12531595305882
 20
233.7182293868236
 30
0.0
 10
37.12531595305882
 20
233.7182293868236
 30
0.0
 10
37.12531541743192
 20
233.7182293868236
 30
0.0
 10
37.12531434671018
 20
233.7182293868236
 30
0.0
 10
37.1129993943814
 20
233.7182293868236
 30
0.0
 10
37.10243141595493
 20
233.7182293868236
 30
0.0
 10
37.08786417380088
 20
233.7182293868236
 30
0.0
 10
37.07329693162683
 20
233.7182293868236
 30
0.0
 10
37.05473042571703
 20
233.7182293868236
 30
0.0
 10
37.03260901870635
 20
233.7182293868236
 30
0.0
 10
36.94412339080009
 20
233.7182293868236
 30
0.0
 10
36.7987593454709
 20
233.7182293868236
 30
0.0
 10
36.62495609142479
 20
233.7182293868236
 30
0.0
 10
36.45115283732593
 20
233.7182293868236
 30
0.0
 10
36.24891037449379
 20
233.7182293868236
 30
0.0
 10
36.04666791166255
 20
233.7182293868236
 30
0.0
 10
35.84442544883132
 20
233.7182293868236
 30
0.0
 10
35.64218298599917
 20
233.7182293868236
 30
0.0
 10
35.46837973190032
 20
233.7182293868236
 30
0.0
 10
35.29457647780237
 20
233.7182293868236
 30
0.0
 10
35.1492124324368
 20
233.7182293868236
 30
0.0
 10
35.06072680453781
 20
233.7182293868236
 30
0.0
 10
35.0386053975626
 20
233.7182293868236
 30
0.0
 10
35.02003889168009
 20
233.7182293868236
 30
0.0
 10
35.00547164952422
 20
233.7182293868236
 30
0.0
 10
34.96801987026629
 20
233.7182291717363
 30
0.0
 10
34.96801987026629
 20
233.7182293868236
 30
0.0
 10
34.96801987026629
 20
233.7182293868236
 30
0.0
 10
34.96801987026629
 20
233.7182293868236
 30
0.0
 10
34.96802313764238
 20
233.7182293868236
 30
0.0
 10
34.96802966435189
 20
233.7182293868236
 30
0.0
 10
34.96801987026629
 20
233.7049742525232
 30
0.0
 10
34.96801987026629
 20
233.6938294780739
 30
0.0
 10
34.96801987026629
 20
233.6790786278852
 30
0.0
 10
34.96801987026629
 20
233.6643277776075
 30
0.0
 10
34.96801987026629
 20
233.6459708515477
 30
0.0
 10
34.96801987026629
 20
233.6249912676986
 30
0.0
 10
34.96801987026629
 20
233.541072932464
 30
0.0
 10
34.96801987026629
 20
233.4151920727991
 30
0.0
 10
34.96801987026629
 20
233.3102874401584
 30
0.0
 10
34.96801987026629
 20
233.2053744149416
 30
0.0
 10
34.96801987026629
 20
233.1214409731638
 30
0.0
 10
34.96801987026629
 20
233.1214409731638
 30
0.0
 10
34.51938556680671
 20
233.6581840907375
 30
0.0
 10
33.78381290627567
 20
233.9205053182031
 30
0.0
 10
33.0836278885945
 20
233.9205053182031
 30
0.0
 10
31.28319273428224
 20
233.9205053182031
 30
0.0
 10
30.03879835364114
 20
232.4193323842473
 30
0.0
 10
30.03879835364114
 20
230.6652280837598
 30
0.0
 10
30.03879835364114
 20
228.9125094439523
 30
0.0
 10
31.30785038903741
 20
227.3976270242665
 30
0.0
 10
33.10739729930174
 20
227.3976270242665
 30
0.0
 10
33.81991114436187
 20
227.3976270242665
 30
0.0
 10
34.56486366203353
 20
227.6698205232742
 30
0.0
 10
34.94549400122378
 20
228.2792980434406
 30
0.0
 10
34.94549400122378
 20
228.2792980434406
 30
0.0
 10
34.96801941975082
 20
228.2792980434406
 30
0.0
 10
34.96801987025901
 20
228.2792980434406
 30
0.0
 10
34.96801987026629
 20
228.2792980434406
 30
0.0
 10
34.96801987026629
 20
228.1096700819935
 30
0.0
 10
34.96801987026629
 20
227.9400421205464
 30
0.0
 10
34.96801987026629
 20
227.7704141591012
 30
0.0
 10
34.96801987026629
 20
227.600786197655
 30
0.0
 10
34.96801987026629
 20
227.600786197655
 30
0.0
 10
34.96801987026629
 20
227.600786197655
 30
0.0
 10
35.50734389096488
 20
227.600786197655
 30
0.0
 10
36.04666791166255
 20
227.600786197655
 30
0.0
 10
36.58599193236023
 20
227.600786197655
 30
0.0
 10
37.12531595305882
 20
227.600786197655
 30
0.0
 10
37.12531595305882
 20
227.600786197655
 30
0.0
 10
37.12531595305882
 20
227.600786197655
 30
0.0
 10
37.12531595305882
 20
228.4611548810826
 30
0.0
 10
37.12531595305882
 20
229.5365770187755
 30
0.0
 10
37.12531595305882
 20
229.5365770187755
 30
0.0
 10
37.12531595305882
 20
229.5365770187755
 30
0.0
 10
37.12531595305882
 20
229.5365770187755
 30
0.0
  0
SPLINE
  5
E3
330
70
100
AcDbEntity
  8
moji
100
AcDbSpline
210
0.0
220
0.0
230
1.0
 70
     9
 71
     3
 72
    20
 73
    16
 74
     0
 42
0.0000000001
 43
0.0000000001
 40
0.0
 40
0.0
 40
0.0
 40
0.0
 40
1.0
 40
1.0
 40
1.0
 40
2.0
 40
2.0
 40
2.0
 40
3.0
 40
3.0
 40
3.0
 40
4.0
 40
4.0
 40
4.0
 40
5.0
 40
5.0
 40
5.0
 40
5.0
 10
32.26896597808354
 20
230.6528992566937
 30
0.0
 10
32.26896597808354
 20
231.4049577077449
 30
0.0
 10
32.77689945414659
 20
232.0364636797294
 30
0.0
 10
33.65316997178434
 20
232.0364636797294
 30
0.0
 10
34.53050638227978
 20
232.0364636797294
 30
0.0
 10
35.03794244167603
 20
231.4049577077449
 30
0.0
 10
35.03794244167603
 20
230.6528992566937
 30
0.0
 10
35.03794244167603
 20
229.8777819907546
 30
0.0
 10
34.53050638227978
 20
229.2794252857811
 30
0.0
 10
33.65316997178434
 20
229.2794252857811
 30
0.0
 10
32.77689945414659
 20
229.2794252857811
 30
0.0
 10
32.26896597808354
 20
229.8777819907546
 30
0.0
 10
32.26896597808354
 20
230.6528992566937
 30
0.0
 10
32.26896597808354
 20
230.6528992566937
 30
0.0
 10
32.26896597808354
 20
230.6528992566937
 30
0.0
 10
32.26896597808354
 20
230.6528992566937
 30
0.0
  0
SPLINE
  5
E4
330
70
100
AcDbEntity
  8
moji
100
AcDbSpline
210
0.0
220
0.0
230
1.0
 70
     9
 71
     3
 72
   101
 73
    97
 74
     0
 42
0.0000000001
 43
0.0000000001
 40
0.0
 40
0.0
 40
0.0
 40
0.0
 40
1.0
 40
1.0
 40
1.0
 40
2.0
 40
2.0
 40
2.0
 40
3.0
 40
3.0
 40
3.0
 40
4.0
 40
4.0
 40
4.0
 40
5.0
 40
5.0
 40
5.0
 40
6.0
 40
6.0
 40
6.0
 40
7.0
 40
7.0
 40
7.0
 40
8.0
 40
8.0
 40
8.0
 40
9.0
 40
9.0
 40
9.0
 40
10.0
 40
10.0
 40
10.0
 40
11.0
 40
11.0
 40
11.0
 40
12.0
 40
12.0
 40
12.0
 40
13.0
 40
13.0
 40
13.0
 40
14.0
 40
14.0
 40
14.0
 40
15.0
 40
15.0
 40
15.0
 40
16.0
 40
16.0
 40
16.0
 40
17.0
 40
17.0
 40
17.0
 40
18.0
 40
18.0
 40
18.0
 40
19.0
 40
19.0
 40
19.0
 40
20.0
 40
20.0
 40
20.0
 40
21.0
 40
21.0
 40
21.0
 40
22.0
 40
22.0
 40
22.0
 40
23.0
 40
23.0
 40
23.0
 40
24.0
 40
24.0
 40
24.0
 40
25.0
 40
25.0
 40
25.0
 40
26.0
 40
26.0
 40
26.0
 40
27.0
 40
27.0
 40
27.0
 40
28.0
 40
28.0
 40
28.0
 40
29.0
 40
29.0
 40
29.0
 40
30.0
 40
30.0
 40
30.0
 40
31.0
 40
31.0
 40
31.0
 40
32.0
 40
32.0
 40
32.0
 40
32.0
 10
45.06053194777814
 20
230.6652280837598
 30
0.0
 10
45.06053194777814
 20
232.4193323842473
 30
0.0
 10
43.81734561044686
 20
233.9205053182031
 30
0.0
 10
42.01829616229679
 20
233.9205053182031
 30
0.0
 10
41.31690408296435
 20
233.9205053182031
 30
0.0
 10
40.59518711527016
 20
233.6581840907375
 30
0.0
 10
40.1325185675505
 20
233.1214409731638
 30
0.0
 10
40.1325185675505
 20
233.1214409731638
 30
0.0
 10
40.1325185675505
 20
237.4986314868056
 30
0.0
 10
40.1325185675505
 20
237.4986314868056
 30
0.0
 10
40.1325185675505
 20
237.4986314868056
 30
0.0
 10
39.59319477250574
 20
237.4986314868056
 30
0.0
 10
39.05387097746007
 20
237.4986314868056
 30
0.0
 10
38.5145471824153
 20
237.4986314868056
 30
0.0
 10
37.97522338737053
 20
237.4986314868056
 30
0.0
 10
37.97522338737053
 20
237.4986314868056
 30
0.0
 10
37.97522338737053
 20
237.4986314868056
 30
0.0
 10
37.97522338737053
 20
236.8798429318176
 30
0.0
 10
37.97522338737053
 20
235.951703414531
 30
0.0
 10
37.97522338737053
 20
235.0237123787638
 30
0.0
 10
37.97522338737053
 20
233.786469351221
 30
0.0
 10
37.97522338737053
 20
232.5492634391203
 30
0.0
 10
37.97522338737053
 20
231.9306604831063
 30
0.0
 10
37.97522338737053
 20
231.3120668059519
 30
0.0
 10
37.97522338737053
 20
230.7321435460544
 30
0.0
 10
37.97522338737053
 20
230.1522202861333
 30
0.0
 10
37.97522338737053
 20
229.6109674434701
 30
0.0
 10
37.97522338737053
 20
229.1470461564649
 30
0.0
 10
37.97522338737053
 20
228.9150855129628
 30
0.0
 10
37.97522338737053
 20
228.7024577583752
 30
0.0
 10
37.97522338737053
 20
228.5139955350023
 30
0.0
 10
37.97522338737053
 20
228.3255333116031
 30
0.0
 10
37.97522338737053
 20
228.1612366194258
 30
0.0
 10
37.97522338737053
 20
228.02593810077
 30
0.0
 10
37.97522338737053
 20
227.9582888414707
 30
0.0
 10
37.97522338737053
 20
227.8978891255456
 30
0.0
 10
37.97522338737053
 20
227.8453430332829
 30
0.0
 10
37.97522338737053
 20
227.7927969410048
 30
0.0
 10
37.97522338737053
 20
227.7481044723936
 30
0.0
 10
37.97522338737053
 20
227.7118697077358
 30
0.0
 10
37.97522338737053
 20
227.6937523254073
 30
0.0
 10
37.97522338737053
 20
227.6777493690661
 30
0.0
 10
37.97522338737053
 20
227.6639363487502
 30
0.0
 10
37.97522338737053
 20
227.6501233284343
 30
0.0
 10
37.97522338737053
 20
227.6385002441421
 30
0.0
 10
37.97522338737053
 20
227.6291426059106
 30
0.0
 10
37.97522338825184
 20
227.600786197655
 30
0.0
 10
37.97522338737053
 20
227.600786197655
 30
0.0
 10
37.97522338737053
 20
227.600786197655
 30
0.0
 10
37.97522338737053
 20
227.600786197655
 30
0.0
 10
37.97522338737053
 20
227.6007873839808
 30
0.0
 10
37.97522338737053
 20
227.6007897558093
 30
0.0
 10
37.97526698010461
 20
227.600786197655
 30
0.0
 10
38.51459055151372
 20
227.600786197655
 30
0.0
 10
39.05390333688774
 20
227.600786197655
 30
0.0
 10
39.59321634524167
 20
227.600786197655
 30
0.0
 10
40.1325185675505
 20
227.600786197655
 30
0.0
 10
40.1325185675505
 20
227.600786197655
 30
0.0
 10
40.1325185675505
 20
227.600786197655
 30
0.0
 10
40.1325185675505
 20
227.6007868447369
 30
0.0
 10
40.1325185675505
 20
227.6007881376354
 30
0.0
 10
40.1325185675505
 20
227.6211606461411
 30
0.0
 10
40.1325185675505
 20
227.6253017981071
 30
0.0
 10
40.1325185675505
 20
227.629939890432
 30
0.0
 10
40.1325185675505
 20
227.6392160750056
 30
0.0
 10
40.1325185675505
 20
227.6504800209778
 30
0.0
 10
40.1325185675505
 20
227.66340044362
 30
0.0
 10
40.1325185675505
 20
227.676320866316
 30
0.0
 10
40.1325185675505
 20
227.6908977656931
 30
0.0
 10
40.1325185675505
 20
227.7067998570183
 30
0.0
 10
40.1325185675505
 20
227.738604039605
 30
0.0
 10
40.1325185675505
 20
227.7757089899578
 30
0.0
 10
40.1325185675505
 20
227.8154644302085
 30
0.0
 10
40.1325185675505
 20
227.8552198704892
 30
0.0
 10
40.1325185675505
 20
227.8976258006697
 30
0.0
 10
40.1325185675505
 20
227.9400319428769
 30
0.0
 10
40.1325185675505
 20
228.0248442272841
 30
0.0
 10
40.1325185675505
 20
228.109657359797
 30
0.0
 10
40.1325185675505
 20
228.1732691174193
 30
0.0
 10
40.1325185675505
 20
228.2368859640865
 30
0.0
 10
40.1325185675505
 20
228.2792980434406
 30
0.0
 10
40.1325185675505
 20
228.2792980434406
 30
0.0
 10
40.1325185675505
 20
228.2792980434406
 30
0.0
 10
40.13251892655444
 20
228.2792980434406
 30
0.0
 10
40.13251964177288
 20
228.2792980434406
 30
0.0
 10
40.1548019735319
 20
228.2792980434406
 30
0.0
 10
40.15628797765839
 20
228.2792980434406
 30
0.0
 10
40.15628797765839
 20
228.2792980434406
 30
0.0
 10
40.54764829505529
 20
227.6698205232742
 30
0.0
 10
41.28201292512949
 20
227.3976270242665
 30
0.0
 10
41.99470440099412
 20
227.3976270242665
 30
0.0
 10
43.80675774166957
 20
227.3976270242665
 30
0.0
 10
45.06053194777814
 20
228.8995055514261
 30
0.0
 10
45.06053194777814
 20
230.6652280837598
 30
0.0
 10
45.06053194777814
 20
230.6652280837598
 30
0.0
 10
45.06053194777814
 20
230.6652280837598
 30
0.0
 10
45.06053194777814
 20
230.6652280837598
 30
0.0
  0
SPLINE
  5
E5
330
70
100
AcDbEntity
  8
moji
100
AcDbSpline
210
0.0
220
0.0
230
1.0
 70
     9
 71
     3
 72
    20
 73
    16
 74
     0
 42
0.0000000001
 43
0.0000000001
 40
0.0
 40
0.0
 40
0.0
 40
0.0
 40
1.0
 40
1.0
 40
1.0
 40
2.0
 40
2.0
 40
2.0
 40
3.0
 40
3.0
 40
3.0
 40
4.0
 40
4.0
 40
4.0
 40
5.0
 40
5.0
 40
5.0
 40
5.0
 10
40.0625959979061
 20
230.6528992566937
 30
0.0
 10
40.0625959979061
 20
231.4049577077449
 30
0.0
 10
40.57141770516227
 20
232.0364636797294
 30
0.0
 10
41.44839879588471
 20
232.0364636797294
 30
0.0
 10
42.32484694019058
 20
232.0364636797294
 30
0.0
 10
42.83455689147285
 20
231.4049577077449
 30
0.0
 10
42.83455689147285
 20
230.6528992566937
 30
0.0
 10
42.83455689147285
 20
229.8777819907546
 30
0.0
 10
42.32484694019058
 20
229.2794252857811
 30
0.0
 10
41.44839879588471
 20
229.2794252857811
 30
0.0
 10
40.57141770516227
 20
229.2794252857811
 30
0.0
 10
40.0625959979061
 20
229.8777819907546
 30
0.0
 10
40.0625959979061
 20
230.6528992566937
 30
0.0
 10
40.0625959979061
 20
230.6528992566937
 30
0.0
 10
40.0625959979061
 20
230.6528992566937
 30
0.0
 10
40.0625959979061
 20
230.6528992566937
 30
0.0
  0
SPLINE
  5
E6
330
70
100
AcDbEntity
  8
moji
100
AcDbSpline
210
0.0
220
0.0
230
1.0
 70
     9
 71
     3
 72
    35
 73
    31
 74
     0
 42
0.0000000001
 43
0.0000000001
 40
0.0
 40
0.0
 40
0.0
 40
0.0
 40
1.0
 40
1.0
 40
1.0
 40
2.0
 40
2.0
 40
2.0
 40
3.0
 40
3.0
 40
3.0
 40
4.0
 40
4.0
 40
4.0
 40
5.0
 40
5.0
 40
5.0
 40
6.0
 40
6.0
 40
6.0
 40
7.0
 40
7.0
 40
7.0
 40
8.0
 40
8.0
 40
8.0
 40
9.0
 40
9.0
 40
9.0
 40
10.0
 40
10.0
 40
10.0
 40
10.0
 10
52.37397795167362
 20
230.5206930160193
 30
0.0
 10
52.37397795167362
 20
232.6087770698905
 30
0.0
 10
51.15313983401029
 20
233.9205053182031
 30
0.0
 10
49.04494593541312
 20
233.9205053182031
 30
0.0
 10
47.06533424187
 20
233.9205053182031
 30
0.0
 10
45.67779048560169
 20
232.6930891927395
 30
0.0
 10
45.67779048560169
 20
230.6528992566937
 30
0.0
 10
45.67779048560169
 20
228.5419340367398
 30
0.0
 10
47.18276010196951
 20
227.3976270242665
 30
0.0
 10
49.19743966961869
 20
227.3976270242665
 30
0.0
 10
50.58359776520592
 20
227.3976270242665
 30
0.0
 10
51.947016813755
 20
228.0535774718174
 30
0.0
 10
52.29279244779172
 20
229.4962634171543
 30
0.0
 10
52.29279244779172
 20
229.4962634171543
 30
0.0
 10
50.21806758405546
 20
229.4962634171543
 30
0.0
 10
50.21806758405546
 20
229.4962634171543
 30
0.0
 10
49.98161702461221
 20
229.0894476537232
 30
0.0
 10
49.64888081286336
 20
228.9345378957714
 30
0.0
 10
49.18688733060117
 20
228.9345378957714
 30
0.0
 10
48.29864330564396
 20
228.9345378957714
 30
0.0
 10
47.83664982338177
 20
229.411276228846
 30
0.0
 10
47.83664982338177
 20
230.2955409205724
 30
0.0
 10
47.83664982338177
 20
230.2955409205724
 30
0.0
 10
52.37397795167362
 20
230.2955409205724
 30
0.0
 10
52.37397795167362
 20
230.2955409205724
 30
0.0
 10
52.37397795167362
 20
230.2955454235471
 30
0.0
 10
52.37397795167362
 20
230.5206885130447
 30
0.0
 10
52.37397795167362
 20
230.5206930159511
 30
0.0
 10
52.37397795167362
 20
230.5206930159511
 30
0.0
 10
52.37397795167362
 20
230.5206930160193
 30
0.0
 10
52.37397795167362
 20
230.5206930160193
 30
0.0
  0
SPLINE
  5
E7
330
70
100
AcDbEntity
  8
moji
100
AcDbSpline
210
0.0
220
0.0
230
1.0
 70
     9
 71
     3
 72
    17
 73
    13
 74
     0
 42
0.0000000001
 43
0.0000000001
 40
0.0
 40
0.0
 40
0.0
 40
0.0
 40
1.0
 40
1.0
 40
1.0
 40
2.0
 40
2.0
 40
2.0
 40
3.0
 40
3.0
 40
3.0
 40
4.0
 40
4.0
 40
4.0
 40
4.0
 10
49.12190339773497
 20
231.5472188707818
 30
0.0
 10
48.49679278273106
 20
231.5472188707818
 30
0.0
 10
47.87168216772625
 20
231.5472188707818
 30
0.0
 10
47.87168216772625
 20
231.5472188707818
 30
0.0
 10
48.00250274772316
 20
232.1804302712944
 30
0.0
 10
48.5234756332411
 20
232.5138820447437
 30
0.0
 10
49.15217475410554
 20
232.5138820447437
 30
0.0
 10
49.73024396554865
 20
232.5138820447437
 30
0.0
 10
50.26699206494959
 20
232.130830724941
 30
0.0
 10
50.37212462774369
 20
231.5472188707818
 30
0.0
 10
50.37212462774369
 20
231.5472188707818
 30
0.0
 10
49.74701401273978
 20
231.5472188707818
 30
0.0
 10
49.12190339773497
 20
231.5472188707818
 30
0.0
  0
HATCH
  5
E8
330
70
100
AcDbEntity
  8
moji
 62
    18
420
        0
440
 33554687
100
AcDbHatch
 10
0.0
 20
0.0
 30
0.0
210
0.0
220
0.0
230
1.0
  2
SOLID
 70
     1
 71
     1
 91
        7
 92
        1
 93
        1
 72
     4
 94
        3
 73
     0
 74
     0
 95
      176
 96
      172
 40
0.0
 40
0.0
 40
0.0
 40
0.0
 40
1.0
 40
1.0
 40
1.0
 40
2.0
 40
2.0
 40
2.0
 40
3.0
 40
3.0
 40
3.0
 40
4.0
 40
4.0
 40
4.0
 40
5.0
 40
5.0
 40
5.0
 40
6.0
 40
6.0
 40
6.0
 40
7.0
 40
7.0
 40
7.0
 40
8.0
 40
8.0
 40
8.0
 40
9.0
 40
9.0
 40
9.0
 40
10.0
 40
10.0
 40
10.0
 40
11.0
 40
11.0
 40
11.0
 40
12.0
 40
12.0
 40
12.0
 40
13.0
 40
13.0
 40
13.0
 40
14.0
 40
14.0
 40
14.0
 40
15.0
 40
15.0
 40
15.0
 40
16.0
 40
16.0
 40
16.0
 40
17.0
 40
17.0
 40
17.0
 40
18.0
 40
18.0
 40
18.0
 40
19.0
 40
19.0
 40
19.0
 40
20.0
 40
20.0
 40
20.0
 40
21.0
 40
21.0
 40
21.0
 40
22.0
 40
22.0
 40
22.0
 40
23.0
 40
23.0
 40
23.0
 40
24.0
 40
24.0
 40
24.0
 40
25.0
 40
25.0
 40
25.0
 40
26.0
 40
26.0
 40
26.0
 40
27.0
 40
27.0
 40
27.0
 40
28.0
 40
28.0
 40
28.0
 40
29.0
 40
29.0
 40
29.0
 40
30.0
 40
30.0
 40
30.0
 40
31.0
 40
31.0
 40
31.0
 40
32.0
 40
32.0
 40
32.0
 40
33.0
 40
33.0
 40
33.0
 40
34.0
 40
34.0
 40
34.0
 40
35.0
 40
35.0
 40
35.0
 40
36.0
 40
36.0
 40
36.0
 40
37.0
 40
37.0
 40
37.0
 40
38.0
 40
38.0
 40
38.0
 40
39.0
 40
39.0
 40
39.0
 40
40.0
 40
40.0
 40
40.0
 40
41.0
 40
41.0
 40
41.0
 40
42.0
 40
42.0
 40
42.0
 40
43.0
 40
43.0
 40
43.0
 40
44.0
 40
44.0
 40
44.0
 40
45.0
 40
45.0
 40
45.0
 40
46.0
 40
46.0
 40
46.0
 40
47.0
 40
47.0
 40
47.0
 40
48.0
 40
48.0
 40
48.0
 40
49.0
 40
49.0
 40
49.0
 40
50.0
 40
50.0
 40
50.0
 40
51.0
 40
51.0
 40
51.0
 40
52.0
 40
52.0
 40
52.0
 40
53.0
 40
53.0
 40
53.0
 40
54.0
 40
54.0
 40
54.0
 40
55.0
 40
55.0
 40
55.0
 40
56.0
 40
56.0
 40
56.0
 40
57.0
 40
57.0
 40
57.0
 40
57.0
 10
25.21922168222591
 20
232.7524238936057
 10
24.77819074781292
 20
233.5626090336518
 10
24.0230411884786
 20
233.9205053182031
 10
23.14520736131635
 20
233.9205053182031
 10
22.36223799841718
 20
233.9205053182031
 10
21.73442710571635
 20
233.6340593830191
 10
21.22471714155836
 20
232.9534868110959
 10
21.22471714155836
 20
232.9534868110959
 10
21.20197854872367
 20
232.9534868110959
 10
21.20197809395268
 20
232.9534868110959
 10
21.2019780939454
 20
232.9534868110959
 10
21.2019780939454
 20
233.0281896156512
 10
21.2019780939454
 20
233.1308994354176
 10
21.2019780939454
 20
233.2335928239136
 10
21.2019780939454
 20
233.3642842673489
 10
21.2019780939454
 20
233.476300383637
 10
21.2019780939454
 20
233.5323084417823
 10
21.2019780939454
 20
233.5836476681397
 10
21.2019780939454
 20
233.6244838899502
 10
21.2019780939454
 20
233.6653201117597
 10
21.2019780939454
 20
233.6956533290222
 10
21.2019780939454
 20
233.7096493689778
 10
21.2019780939454
 20
233.7182288669828
 10
21.2019780939454
 20
233.7182293868236
 10
21.2019780939454
 20
233.7182293868236
 10
21.2019780939454
 20
233.7182293868236
 10
21.20197775532688
 20
233.7182293868236
 10
21.20197707835723
 20
233.7182293868236
 10
21.17459397756466
 20
233.7182293868236
 10
21.16294643435049
 20
233.7182293868236
 10
21.1486248382671
 20
233.7182293868236
 10
21.11998164610032
 20
233.7182293868236
 10
21.080642242453
 20
233.7182293868236
 10
21.03266369234552
 20
233.7182293868236
 10
20.98468514223714
 20
233.7182293868236
 10
20.92806744566769
 20
233.7182293868236
 10
20.86486766765665
 20
233.7182293868236
 10
20.61206855561341
 20
233.7182293868236
 10
20.2539561404974
 20
233.7182293868236
 10
19.92218258353387
 20
233.7182293868236
 10
19.59040902656943
 20
233.7182293868236
 10
19.28497432775657
 20
233.7182293868236
 10
19.1375306483178
 20
233.7182293868236
 10
19.11910018838807
 20
233.7182293868236
 10
19.10313833813507
 20
233.7182293868236
 10
19.08990223068758
 20
233.7182293868236
 10
19.0766661231828
 20
233.7182293868236
 10
19.06615575850719
 20
233.7182293868236
 10
19.05862826979046
 20
233.7182293868236
 10
19.04486588633608
 20
233.7182293868236
 10
19.04485965996082
 20
233.7182293868236
 10
19.04485965996082
 20
233.7182293868236
 10
19.04485965996082
 20
233.7182293868236
 10
19.04485965996082
 20
233.7182292800981
 10
19.04485965996082
 20
233.7182290666733
 10
19.04485965996082
 20
233.6717254478326
 10
19.04485965996082
 20
233.607778555006
 10
19.04485965996082
 20
233.5146631701455
 10
19.04485965996082
 20
233.4215477851931
 10
19.04485965996082
 20
233.2992639081512
 10
19.04485965996082
 20
233.1536452374367
 10
19.04485965996082
 20
232.8624078961002
 10
19.04485965996082
 20
232.477831380138
 10
19.04485965996082
 20
232.0465852768602
 10
19.04485965996082
 20
231.615339173537
 10
19.04485965996082
 20
231.1374234828881
 10
19.04485965996082
 20
230.6595077922402
 10
19.04485965996082
 20
230.1815921015905
 10
19.04485965996082
 20
229.7036764109416
 10
19.04485965996082
 20
229.2724303076184
 10
19.04485965996082
 20
228.8411842042679
 10
19.04485965996082
 20
228.4566076882474
 10
19.04485965996082
 20
228.1653703468937
 10
19.04485965996082
 20
228.0197516762455
 10
19.04485965996082
 20
227.8974677992528
 10
19.04485965996082
 20
227.8043524143322
 10
19.04485965996082
 20
227.7112370293998
 10
19.04485965996082
 20
227.6472901365469
 10
19.04485965996082
 20
227.6183454341863
 10
19.06615575859905
 20
227.600786197655
 10
19.07666612324192
 20
227.600786197655
 10
19.08990223068758
 20
227.600786197655
 10
19.10313833815235
 20
227.600786197655
 10
19.11910018842809
 20
227.600786197655
 10
19.13753064838693
 20
227.600786197655
 10
19.28497432785298
 20
227.600786197655
 10
19.59040902662127
 20
227.600786197655
 10
19.92218258353387
 20
227.600786197655
 10
20.2539561404974
 20
227.600786197655
 10
20.61206855561341
 20
227.600786197655
 10
20.86486766765665
 20
227.600786197655
 10
20.92806744566769
 20
227.600786197655
 10
20.98468514223714
 20
227.600786197655
 10
21.03266369234552
 20
227.600786197655
 10
21.080642242453
 20
227.600786197655
 10
21.11998164610032
 20
227.600786197655
 10
21.1486248382671
 20
227.600786197655
 10
21.16294643435049
 20
227.600786197655
 10
21.17459397756466
 20
227.600786197655
 10
21.1833103347808
 20
227.600786197655
 10
21.2019780939454
 20
227.6007863315635
 10
21.2019780939454
 20
227.600786197655
 10
21.2019780939454
 20
227.600786197655
 10
21.2019780939454
 20
227.600786197655
 10
21.2019770328061
 20
227.600786197655
 10
21.20197491201543
 20
227.600786197655
 10
21.2019780939454
 20
227.6211609354041
 10
21.2019780939454
 20
227.6268661645708
 10
21.2019780939454
 20
227.6335460484215
 10
21.2019780939454
 20
227.6869851190477
 10
21.2019780939454
 20
227.8028020889642
 10
21.2019780939454
 20
227.9587211736871
 10
21.2019780939454
 20
228.1146402584873
 10
21.2019780939454
 20
228.3106614581356
 10
21.2019780939454
 20
228.52450898811
 10
21.2019780939454
 20
228.9522040479687
 10
21.2019780939454
 20
229.4512044291023
 10
21.2019780939454
 20
229.843303855454
 10
21.2019780939454
 20
230.2354660189967
 10
21.2019780939454
 20
230.5206930160193
 10
21.2019780939454
 20
230.5206930160193
 10
21.2019780939454
 20
231.2014787665075
 10
21.2019780939454
 20
232.238201662678
 10
22.16032236156298
 20
232.238201662678
 10
23.12126030179843
 20
232.238201662678
 10
23.12126030179843
 20
231.2014787665075
 10
23.12126030179843
 20
230.5206930160193
 10
23.12126030179843
 20
230.5206930160193
 10
23.12126030179843
 20
227.600786197655
 10
23.12126030179843
 20
227.600786197655
 10
23.12126030179843
 20
227.600786197655
 10
23.66027343707992
 20
227.600786197655
 10
24.19928657236324
 20
227.600786197655
 10
24.73829970764473
 20
227.600786197655
 10
25.27731284292622
 20
227.600786197655
 10
25.27731284292622
 20
227.600786197655
 10
25.27731284292622
 20
227.600786197655
 10
25.27731284292622
 20
228.3307629022456
 10
25.27731284292622
 20
229.0607396068371
 10
25.27731284292622
 20
229.7907163114287
 10
25.27731284292622
 20
230.5206930160193
 10
25.27731284292622
 20
230.5206930160193
 10
25.27731284292622
 20
231.2486672236328
 10
25.31376637863104
 20
232.1915510864865
 10
26.30973666409773
 20
232.1915510864865
 10
27.22192777101191
 20
232.1915510864865
 10
27.19798071149308
 20
231.154117595097
 10
27.19798071149308
 20
230.5206930160193
 10
27.19798071149308
 20
230.5206930160193
 10
27.19798071149308
 20
227.600786197655
 10
27.19798071149308
 20
227.600786197655
 10
27.19798071149308
 20
227.600786197655
 10
27.73717149558525
 20
227.600786197655
 10
28.27636227967651
 20
227.600786197655
 10
28.81555306376867
 20
227.600786197655
 10
29.35474384785994
 20
227.600786197655
 10
29.35474384785994
 20
227.600786197655
 10
29.35474384785994
 20
227.600786197655
 10
29.35474384785994
 20
228.5755553082999
 10
29.35474384785994
 20
229.5503244189458
 10
29.35474384785994
 20
230.5250935295908
 10
29.35474384785994
 20
231.4998626402366
 10
29.35474384785994
 20
231.4998626402366
 10
29.35474384785994
 20
232.9073336515594
 10
28.82197506823104
 20
233.9205053182031
 10
27.27934386623565
 20
233.9205053182031
 10
26.45043452120535
 20
233.9205053182031
 10
25.63417377140922
 20
233.5150702134352
 10
25.21922168222591
 20
232.7524238936057
 10
25.21922168222591
 20
232.7524238936057
 10
25.21922168222591
 20
232.7524238936057
 10
25.21922168222591
 20
232.7524238936057
 97
        0
 97
        1
330
E1
 92
        1
 93
        2
 72
     4
 94
        3
 73
     0
 74
     0
 95
       98
 96
       94
 40
0.0
 40
0.0
 40
0.0
 40
0.0
 40
1.0
 40
1.0
 40
1.0
 40
2.0
 40
2.0
 40
2.0
 40
3.0
 40
3.0
 40
3.0
 40
4.0
 40
4.0
 40
4.0
 40
5.0
 40
5.0
 40
5.0
 40
6.0
 40
6.0
 40
6.0
 40
7.0
 40
7.0
 40
7.0
 40
8.0
 40
8.0
 40
8.0
 40
9.0
 40
9.0
 40
9.0
 40
10.0
 40
10.0
 40
10.0
 40
11.0
 40
11.0
 40
11.0
 40
12.0
 40
12.0
 40
12.0
 40
13.0
 40
13.0
 40
13.0
 40
14.0
 40
14.0
 40
14.0
 40
15.0
 40
15.0
 40
15.0
 40
16.0
 40
16.0
 40
16.0
 40
17.0
 40
17.0
 40
17.0
 40
18.0
 40
18.0
 40
18.0
 40
19.0
 40
19.0
 40
19.0
 40
20.0
 40
20.0
 40
20.0
 40
21.0
 40
21.0
 40
21.0
 40
22.0
 40
22.0
 40
22.0
 40
23.0
 40
23.0
 40
23.0
 40
24.0
 40
24.0
 40
24.0
 40
25.0
 40
25.0
 40
25.0
 40
26.0
 40
26.0
 40
26.0
 40
27.0
 40
27.0
 40
27.0
 40
28.0
 40
28.0
 40
28.0
 40
29.0
 40
29.0
 40
29.0
 40
30.0
 40
30.0
 40
30.0
 40
31.0
 40
31.0
 40
31.0
 40
31.0
 10
37.12531595305882
 20
229.5365770187755
 10
37.12531595305882
 20
230.6119131278602
 10
37.12531595305882
 20
231.9022682860996
 10
37.12531595305882
 20
232.7624821183054
 10
37.12531595305882
 20
232.9775355763568
 10
37.12531595305882
 20
233.1657052015307
 10
37.12531595305882
 20
233.3169103629662
 10
37.12531595305882
 20
233.4681155244016
 10
37.12531595305882
 20
233.5823562220976
 10
37.12531595305882
 20
233.6495518251914
 10
37.12531595305882
 20
233.6663507259645
 10
37.12531595305882
 20
233.6802093083261
 10
37.12531595305882
 20
233.6909700624165
 10
37.12531595305882
 20
233.7017308165077
 10
37.12531595305882
 20
233.7093937423297
 10
37.12531595305882
 20
233.7138013300237
 10
37.12531595305882
 20
233.718227182052
 10
37.12531595305882
 20
233.7182293868236
 10
37.12531595305882
 20
233.7182293868236
 10
37.12531595305882
 20
233.7182293868236
 10
37.12531541743192
 20
233.7182293868236
 10
37.12531434671018
 20
233.7182293868236
 10
37.1129993943814
 20
233.7182293868236
 10
37.10243141595493
 20
233.7182293868236
 10
37.08786417380088
 20
233.7182293868236
 10
37.07329693162683
 20
233.7182293868236
 10
37.05473042571703
 20
233.7182293868236
 10
37.03260901870635
 20
233.7182293868236
 10
36.94412339080009
 20
233.7182293868236
 10
36.7987593454709
 20
233.7182293868236
 10
36.62495609142479
 20
233.7182293868236
 10
36.45115283732593
 20
233.7182293868236
 10
36.24891037449379
 20
233.7182293868236
 10
36.04666791166255
 20
233.7182293868236
 10
35.84442544883132
 20
233.7182293868236
 10
35.64218298599917
 20
233.7182293868236
 10
35.46837973190032
 20
233.7182293868236
 10
35.29457647780237
 20
233.7182293868236
 10
35.1492124324368
 20
233.7182293868236
 10
35.06072680453781
 20
233.7182293868236
 10
35.0386053975626
 20
233.7182293868236
 10
35.02003889168009
 20
233.7182293868236
 10
35.00547164952422
 20
233.7182293868236
 10
34.96801987026629
 20
233.7182291717363
 10
34.96801987026629
 20
233.7182293868236
 10
34.96801987026629
 20
233.7182293868236
 10
34.96801987026629
 20
233.7182293868236
 10
34.96802313764238
 20
233.7182293868236
 10
34.96802966435189
 20
233.7182293868236
 10
34.96801987026629
 20
233.7049742525232
 10
34.96801987026629
 20
233.6938294780739
 10
34.96801987026629
 20
233.6790786278852
 10
34.96801987026629
 20
233.6643277776075
 10
34.96801987026629
 20
233.6459708515477
 10
34.96801987026629
 20
233.6249912676986
 10
34.96801987026629
 20
233.541072932464
 10
34.96801987026629
 20
233.4151920727991
 10
34.96801987026629
 20
233.3102874401584
 10
34.96801987026629
 20
233.2053744149416
 10
34.96801987026629
 20
233.1214409731638
 10
34.96801987026629
 20
233.1214409731638
 10
34.51938556680671
 20
233.6581840907375
 10
33.78381290627567
 20
233.9205053182031
 10
33.0836278885945
 20
233.9205053182031
 10
31.28319273428224
 20
233.9205053182031
 10
30.03879835364114
 20
232.4193323842473
 10
30.03879835364114
 20
230.6652280837598
 10
30.03879835364114
 20
228.9125094439523
 10
31.30785038903741
 20
227.3976270242665
 10
33.10739729930174
 20
227.3976270242665
 10
33.81991114436187
 20
227.3976270242665
 10
34.56486366203353
 20
227.6698205232742
 10
34.94549400122378
 20
228.2792980434406
 10
34.94549400122378
 20
228.2792980434406
 10
34.96801941975082
 20
228.2792980434406
 10
34.96801987025901
 20
228.2792980434406
 10
34.96801987026629
 20
228.2792980434406
 10
34.96801987026629
 20
228.1096700819935
 10
34.96801987026629
 20
227.9400421205464
 10
34.96801987026629
 20
227.7704141591012
 10
34.96801987026629
 20
227.600786197655
 10
34.96801987026629
 20
227.600786197655
 10
34.96801987026629
 20
227.600786197655
 10
35.50734389096488
 20
227.600786197655
 10
36.04666791166255
 20
227.600786197655
 10
36.58599193236023
 20
227.600786197655
 10
37.12531595305882
 20
227.600786197655
 10
37.12531595305882
 20
227.600786197655
 10
37.12531595305882
 20
227.600786197655
 10
37.12531595305882
 20
228.4611548810826
 10
37.12531595305882
 20
229.5365770187755
 10
37.12531595305882
 20
229.5365770187755
 10
37.12531595305882
 20
229.5365770187755
 10
37.12531595305882
 20
229.5365770187755
 97
        0
 72
     1
 10
37.12531595305882
 20
229.5365770187755
 11
37.12531595305882
 21
229.5365770187755
 97
        0
 92
        1
 93
        2
 72
     4
 94
        3
 73
     0
 74
     0
 95
       20
 96
       16
 40
0.0
 40
0.0
 40
0.0
 40
0.0
 40
1.0
 40
1.0
 40
1.0
 40
2.0
 40
2.0
 40
2.0
 40
3.0
 40
3.0
 40
3.0
 40
4.0
 40
4.0
 40
4.0
 40
5.0
 40
5.0
 40
5.0
 40
5.0
 10
32.26896597808354
 20
230.6528992566937
 10
32.26896597808354
 20
231.4049577077449
 10
32.77689945414659
 20
232.0364636797294
 10
33.65316997178434
 20
232.0364636797294
 10
34.53050638227978
 20
232.0364636797294
 10
35.03794244167603
 20
231.4049577077449
 10
35.03794244167603
 20
230.6528992566937
 10
35.03794244167603
 20
229.8777819907546
 10
34.53050638227978
 20
229.2794252857811
 10
33.65316997178434
 20
229.2794252857811
 10
32.77689945414659
 20
229.2794252857811
 10
32.26896597808354
 20
229.8777819907546
 10
32.26896597808354
 20
230.6528992566937
 10
32.26896597808354
 20
230.6528992566937
 10
32.26896597808354
 20
230.6528992566937
 10
32.26896597808354
 20
230.6528992566937
 97
        0
 72
     1
 10
32.26896597808354
 20
230.6528992566937
 11
32.26896597808354
 21
230.6528992566937
 97
        0
 92
        1
 93
        2
 72
     4
 94
        3
 73
     0
 74
     0
 95
      101
 96
       97
 40
0.0
 40
0.0
 40
0.0
 40
0.0
 40
1.0
 40
1.0
 40
1.0
 40
2.0
 40
2.0
 40
2.0
 40
3.0
 40
3.0
 40
3.0
 40
4.0
 40
4.0
 40
4.0
 40
5.0
 40
5.0
 40
5.0
 40
6.0
 40
6.0
 40
6.0
 40
7.0
 40
7.0
 40
7.0
 40
8.0
 40
8.0
 40
8.0
 40
9.0
 40
9.0
 40
9.0
 40
10.0
 40
10.0
 40
10.0
 40
11.0
 40
11.0
 40
11.0
 40
12.0
 40
12.0
 40
12.0
 40
13.0
 40
13.0
 40
13.0
 40
14.0
 40
14.0
 40
14.0
 40
15.0
 40
15.0
 40
15.0
 40
16.0
 40
16.0
 40
16.0
 40
17.0
 40
17.0
 40
17.0
 40
18.0
 40
18.0
 40
18.0
 40
19.0
 40
19.0
 40
19.0
 40
20.0
 40
20.0
 40
20.0
 40
21.0
 40
21.0
 40
21.0
 40
22.0
 40
22.0
 40
22.0
 40
23.0
 40
23.0
 40
23.0
 40
24.0
 40
24.0
 40
24.0
 40
25.0
 40
25.0
 40
25.0
 40
26.0
 40
26.0
 40
26.0
 40
27.0
 40
27.0
 40
27.0
 40
28.0
 40
28.0
 40
28.0
 40
29.0
 40
29.0
 40
29.0
 40
30.0
 40
30.0
 40
30.0
 40
31.0
 40
31.0
 40
31.0
 40
32.0
 40
32.0
 40
32.0
 40
32.0
 10
45.06053194777814
 20
230.6652280837598
 10
45.06053194777814
 20
232.4193323842473
 10
43.81734561044686
 20
233.9205053182031
 10
42.01829616229679
 20
233.9205053182031
 10
41.31690408296435
 20
233.9205053182031
 10
40.59518711527016
 20
233.6581840907375
 10
40.1325185675505
 20
233.1214409731638
 10
40.1325185675505
 20
233.1214409731638
 10
40.1325185675505
 20
237.4986314868056
 10
40.1325185675505
 20
237.4986314868056
 10
40.1325185675505
 20
237.4986314868056
 10
39.59319477250574
 20
237.4986314868056
 10
39.05387097746007
 20
237.4986314868056
 10
38.5145471824153
 20
237.4986314868056
 10
37.97522338737053
 20
237.4986314868056
 10
37.97522338737053
 20
237.4986314868056
 10
37.97522338737053
 20
237.4986314868056
 10
37.97522338737053
 20
236.8798429318176
 10
37.97522338737053
 20
235.951703414531
 10
37.97522338737053
 20
235.0237123787638
 10
37.97522338737053
 20
233.786469351221
 10
37.97522338737053
 20
232.5492634391203
 10
37.97522338737053
 20
231.9306604831063
 10
37.97522338737053
 20
231.3120668059519
 10
37.97522338737053
 20
230.7321435460544
 10
37.97522338737053
 20
230.1522202861333
 10
37.97522338737053
 20
229.6109674434701
 10
37.97522338737053
 20
229.1470461564649
 10
37.97522338737053
 20
228.9150855129628
 10
37.97522338737053
 20
228.7024577583752
 10
37.97522338737053
 20
228.5139955350023
 10
37.97522338737053
 20
228.3255333116031
 10
37.97522338737053
 20
228.1612366194258
 10
37.97522338737053
 20
228.02593810077
 10
37.97522338737053
 20
227.9582888414707
 10
37.97522338737053
 20
227.8978891255456
 10
37.97522338737053
 20
227.8453430332829
 10
37.97522338737053
 20
227.7927969410048
 10
37.97522338737053
 20
227.7481044723936
 10
37.97522338737053
 20
227.7118697077358
 10
37.97522338737053
 20
227.6937523254073
 10
37.97522338737053
 20
227.6777493690661
 10
37.97522338737053
 20
227.6639363487502
 10
37.97522338737053
 20
227.6501233284343
 10
37.97522338737053
 20
227.6385002441421
 10
37.97522338737053
 20
227.6291426059106
 10
37.97522338825184
 20
227.600786197655
 10
37.97522338737053
 20
227.600786197655
 10
37.97522338737053
 20
227.600786197655
 10
37.97522338737053
 20
227.600786197655
 10
37.97522338737053
 20
227.6007873839808
 10
37.97522338737053
 20
227.6007897558093
 10
37.97526698010461
 20
227.600786197655
 10
38.51459055151372
 20
227.600786197655
 10
39.05390333688774
 20
227.600786197655
 10
39.59321634524167
 20
227.600786197655
 10
40.1325185675505
 20
227.600786197655
 10
40.1325185675505
 20
227.600786197655
 10
40.1325185675505
 20
227.600786197655
 10
40.1325185675505
 20
227.6007868447369
 10
40.1325185675505
 20
227.6007881376354
 10
40.1325185675505
 20
227.6211606461411
 10
40.1325185675505
 20
227.6253017981071
 10
40.1325185675505
 20
227.629939890432
 10
40.1325185675505
 20
227.6392160750056
 10
40.1325185675505
 20
227.6504800209778
 10
40.1325185675505
 20
227.66340044362
 10
40.1325185675505
 20
227.676320866316
 10
40.1325185675505
 20
227.6908977656931
 10
40.1325185675505
 20
227.7067998570183
 10
40.1325185675505
 20
227.738604039605
 10
40.1325185675505
 20
227.7757089899578
 10
40.1325185675505
 20
227.8154644302085
 10
40.1325185675505
 20
227.8552198704892
 10
40.1325185675505
 20
227.8976258006697
 10
40.1325185675505
 20
227.9400319428769
 10
40.1325185675505
 20
228.0248442272841
 10
40.1325185675505
 20
228.109657359797
 10
40.1325185675505
 20
228.1732691174193
 10
40.1325185675505
 20
228.2368859640865
 10
40.1325185675505
 20
228.2792980434406
 10
40.1325185675505
 20
228.2792980434406
 10
40.1325185675505
 20
228.2792980434406
 10
40.13251892655444
 20
228.2792980434406
 10
40.13251964177288
 20
228.2792980434406
 10
40.1548019735319
 20
228.2792980434406
 10
40.15628797765839
 20
228.2792980434406
 10
40.15628797765839
 20
228.2792980434406
 10
40.54764829505529
 20
227.6698205232742
 10
41.28201292512949
 20
227.3976270242665
 10
41.99470440099412
 20
227.3976270242665
 10
43.80675774166957
 20
227.3976270242665
 10
45.06053194777814
 20
228.8995055514261
 10
45.06053194777814
 20
230.6652280837598
 10
45.06053194777814
 20
230.6652280837598
 10
45.06053194777814
 20
230.6652280837598
 10
45.06053194777814
 20
230.6652280837598
 97
        0
 72
     1
 10
45.06053194777814
 20
230.6652280837598
 11
45.06053194777814
 21
230.6652280837598
 97
        0
 92
        1
 93
        2
 72
     4
 94
        3
 73
     0
 74
     0
 95
       20
 96
       16
 40
0.0
 40
0.0
 40
0.0
 40
0.0
 40
1.0
 40
1.0
 40
1.0
 40
2.0
 40
2.0
 40
2.0
 40
3.0
 40
3.0
 40
3.0
 40
4.0
 40
4.0
 40
4.0
 40
5.0
 40
5.0
 40
5.0
 40
5.0
 10
40.0625959979061
 20
230.6528992566937
 10
40.0625959979061
 20
231.4049577077449
 10
40.57141770516227
 20
232.0364636797294
 10
41.44839879588471
 20
232.0364636797294
 10
42.32484694019058
 20
232.0364636797294
 10
42.83455689147285
 20
231.4049577077449
 10
42.83455689147285
 20
230.6528992566937
 10
42.83455689147285
 20
229.8777819907546
 10
42.32484694019058
 20
229.2794252857811
 10
41.44839879588471
 20
229.2794252857811
 10
40.57141770516227
 20
229.2794252857811
 10
40.0625959979061
 20
229.8777819907546
 10
40.0625959979061
 20
230.6528992566937
 10
40.0625959979061
 20
230.6528992566937
 10
40.0625959979061
 20
230.6528992566937
 10
40.0625959979061
 20
230.6528992566937
 97
        0
 72
     1
 10
40.0625959979061
 20
230.6528992566937
 11
40.0625959979061
 21
230.6528992566937
 97
        0
 92
        1
 93
        2
 72
     4
 94
        3
 73
     0
 74
     0
 95
       35
 96
       31
 40
0.0
 40
0.0
 40
0.0
 40
0.0
 40
1.0
 40
1.0
 40
1.0
 40
2.0
 40
2.0
 40
2.0
 40
3.0
 40
3.0
 40
3.0
 40
4.0
 40
4.0
 40
4.0
 40
5.0
 40
5.0
 40
5.0
 40
6.0
 40
6.0
 40
6.0
 40
7.0
 40
7.0
 40
7.0
 40
8.0
 40
8.0
 40
8.0
 40
9.0
 40
9.0
 40
9.0
 40
10.0
 40
10.0
 40
10.0
 40
10.0
 10
52.37397795167362
 20
230.5206930160193
 10
52.37397795167362
 20
232.6087770698905
 10
51.15313983401029
 20
233.9205053182031
 10
49.04494593541312
 20
233.9205053182031
 10
47.06533424187
 20
233.9205053182031
 10
45.67779048560169
 20
232.6930891927395
 10
45.67779048560169
 20
230.6528992566937
 10
45.67779048560169
 20
228.5419340367398
 10
47.18276010196951
 20
227.3976270242665
 10
49.19743966961869
 20
227.3976270242665
 10
50.58359776520592
 20
227.3976270242665
 10
51.947016813755
 20
228.0535774718174
 10
52.29279244779172
 20
229.4962634171543
 10
52.29279244779172
 20
229.4962634171543
 10
50.21806758405546
 20
229.4962634171543
 10
50.21806758405546
 20
229.4962634171543
 10
49.98161702461221
 20
229.0894476537232
 10
49.64888081286336
 20
228.9345378957714
 10
49.18688733060117
 20
228.9345378957714
 10
48.29864330564396
 20
228.9345378957714
 10
47.83664982338177
 20
229.411276228846
 10
47.83664982338177
 20
230.2955409205724
 10
47.83664982338177
 20
230.2955409205724
 10
52.37397795167362
 20
230.2955409205724
 10
52.37397795167362
 20
230.2955409205724
 10
52.37397795167362
 20
230.2955454235471
 10
52.37397795167362
 20
230.5206885130447
 10
52.37397795167362
 20
230.5206930159511
 10
52.37397795167362
 20
230.5206930159511
 10
52.37397795167362
 20
230.5206930160193
 10
52.37397795167362
 20
230.5206930160193
 97
        0
 72
     1
 10
52.37397795167362
 20
230.5206930160193
 11
52.37397795167362
 21
230.5206930160193
 97
        0
 92
        1
 93
        2
 72
     4
 94
        3
 73
     0
 74
     0
 95
       17
 96
       13
 40
0.0
 40
0.0
 40
0.0
 40
0.0
 40
1.0
 40
1.0
 40
1.0
 40
2.0
 40
2.0
 40
2.0
 40
3.0
 40
3.0
 40
3.0
 40
4.0
 40
4.0
 40
4.0
 40
4.0
 10
49.12190339773497
 20
231.5472188707818
 10
48.49679278273106
 20
231.5472188707818
 10
47.87168216772625
 20
231.5472188707818
 10
47.87168216772625
 20
231.5472188707818
 10
48.00250274772316
 20
232.1804302712944
 10
48.5234756332411
 20
232.5138820447437
 10
49.15217475410554
 20
232.5138820447437
 10
49.73024396554865
 20
232.5138820447437
 10
50.26699206494959
 20
232.130830724941
 10
50.37212462774369
 20
231.5472188707818
 10
50.37212462774369
 20
231.5472188707818
 10
49.74701401273978
 20
231.5472188707818
 10
49.12190339773497
 20
231.5472188707818
 97
        0
 72
     1
 10
49.12190339773497
 20
231.5472188707818
 11
49.12190339773497
 21
231.5472188707818
 97
        0
 75
     0
 76
     1
 98
        1
 10
0.0
 20
0.0
450
        0
451
        0
460
0.0
461
0.0
452
        0
462
0.0
453
        0
470

  0
LINE
  5
E9
330
70
100
AcDbEntity
  8
moji
 62
    18
420
        0
370
    18
100
AcDbLine
 10
27.56717046735412
 20
172.5817077501187
 30
0.0
 11
82.74652308156692
 21
172.5817077501187
 31
0.0
  0
MTEXT
  5
EA
330
70
100
AcDbEntity
  8
moji
100
AcDbMText
 10
65.49285888671875
 20
197.9776916503906
 30
0.0
 40
0.2
 41
0.0
 46
0.0
 71
     7
 72
     1
  1
\C18;\c0;\FMS PGothic|b0|i0|c128;\H1.785714;\W1.000000;様
 73
     1
 44
1.0
  0
MTEXT
  5
EB
330
70
100
AcDbEntity
  8
moji
100
AcDbMText
 10
32.71991348266602
 20
197.8961181640625
 30
0.0
 40
0.2
 41
0.0
 46
0.0
 71
     7
 72
     1
  1
\C18;\c0;\FMS PGothic|b0|i0|c128;\H1.785714;\W1.000000;仕
 73
     1
 44
1.0
  0
MTEXT
  5
EC
330
70
100
AcDbEntity
  8
moji
100
AcDbMText
 10
20.03848838806153
 20
193.9545745849609
 30
0.0
 40
0.2
 41
0.0
 46
0.0
 71
     7
 72
     1
  1
\C18;\c0;\FMS PGothic|b0|i0|c128;\H1.785714;\W1.000000;型式
 73
     1
 44
1.0
  0
MTEXT
  5
ED
330
70
100
AcDbEntity
  8
moji
100
AcDbMText
 10
20.27773284912109
 20
159.6515960693359
 30
0.0
 40
0.2
 41
0.0
 46
0.0
 71
     7
 72
     1
  1
\C18;\c0;\FMS PGothic|b0|i0|c128;\H1.785714;\W1.000000;電気
 73
     1
 44
1.0
  0
MTEXT
  5
EE
330
70
100
AcDbEntity
  8
moji
100
AcDbMText
 10
20.33881378173828
 20
156.2042236328125
 30
0.0
 40
0.2
 41
0.0
 46
0.0
 71
     7
 72
     1
  1
\C18;\c0;\FMS PGothic|b0|i0|c128;\H1.785714;\W1.000000;定格
 73
     1
 44
1.0
  0
MTEXT
  5
EF
330
70
100
AcDbEntity
  8
moji
100
AcDbMText
 10
20.47291374206543
 20
186.4864959716797
 30
0.0
 40
0.2
 41
0.0
 46
0.0
 71
     7
 72
     1
  1
\C18;\c0;\FMS PGothic|b0|i0|c128;\H1.785714;\W1.000000;外形
 73
     1
 44
1.0
  0
MTEXT
  5
F0
330
70
100
AcDbEntity
  8
moji
100
AcDbMText
 10
20.26923179626465
 20
183.2484741210937
 30
0.0
 40
0.2
 41
0.0
 46
0.0
 71
     7
 72
     1
  1
\C18;\c0;\FMS PGothic|b0|i0|c128;\H1.785714;\W1.000000;寸法
 73
     1
 44
1.0
  0
MTEXT
  5
F1
330
70
100
AcDbEntity
  8
moji
100
AcDbMText
 10
20.38460922241211
 20
180.2202453613281
 30
0.0
 40
0.2
 41
0.0
 46
0.0
 71
     7
 72
     1
  1
\C18;\c0;\FMS PGothic|b0|i0|c128;\H1.785714;\W1.000000;(mm)
 73
     1
 44
1.0
  0
MTEXT
  5
F2
330
70
100
AcDbEntity
  8
moji
100
AcDbMText
 10
20.02834320068359
 20
173.9426116943359
 30
0.0
 40
0.2
 41
0.0
 46
0.0
 71
     7
 72
     1
  1
\C18;\c0;\FMS PGothic|b0|i0|c128;\H1.785714;\W1.000000;質量
 73
     1
 44
1.0
  0
MTEXT
  5
F3
330
70
100
AcDbEntity
  8
moji
100
AcDbMText
 10
38.65661239624023
 20
174.0440673828125
 30
0.0
 40
0.2
 41
0.0
 46
0.0
 71
     7
 72
     1
  1
\C18;\c0;\FMS PGothic|b0|i0|c128;\H1.785714;\W1.000000;(kg)
 73
     1
 44
1.0
  0
MTEXT
  5
F4
330
70
100
AcDbEntity
  8
moji
100
AcDbMText
 10
20.03848838806153
 20
169.9074249267578
 30
0.0
 40
0.2
 41
0.0
 46
0.0
 71
     7
 72
     1
  1
\C18;\c0;\FMS PGothic|b0|i0|c128;\H1.785714;\W1.000000;定格内容量
 73
     1
 44
1.0
  0
MTEXT
  5
F5
330
70
100
AcDbEntity
  8
moji
100
AcDbMText
 10
38.65661239624023
 20
169.8668365478515
 30
0.0
 40
0.2
 41
0.0
 46
0.0
 71
     7
 72
     1
  1
\C18;\c0;\FMS PGothic|b0|i0|c128;\H1.785714;\W1.000000;(L)
 73
     1
 44
1.0
  0
MTEXT
  5
F6
330
70
100
AcDbEntity
  8
moji
100
AcDbMText
 10
20.0080509185791
 20
125.703727722168
 30
0.0
 40
0.2
 41
0.0
 46
0.0
 71
     7
 72
     1
  1
\C18;\c0;\FMS PGothic|b0|i0|c128;\H1.785714;\W1.000000;電源コード長さ(m)
 73
     1
 44
1.0
  0
MTEXT
  5
F7
330
70
100
AcDbEntity
  8
moji
100
AcDbMText
 10
28.47330665588379
 20
189.9860687255859
 30
0.0
 40
0.2
 41
0.0
 46
0.0
 71
     7
 72
     1
  1
\C18;\c0;\FMS PGothic|b0|i0|c128;\H1.785714;\W1.000000;幅・奥行・高さ
 73
     1
 44
1.0
  0
MTEXT
  5
F8
330
70
100
AcDbEntity
  8
moji
100
AcDbMText
 10
19.90658950805664
 20
137.7370452880859
 30
0.0
 40
0.2
 41
0.0
 46
0.0
 71
     7
 72
     1
  1
\C18;\c0;\FMS PGothic|b0|i0|c128;\H1.785714;\W1.000000;ドア開き
 73
     1
 44
1.0
  0
MTEXT
  5
F9
330
70
100
AcDbEntity
  8
moji
100
AcDbMText
 10
59.92739105224609
 20
137.7015228271484
 30
0.0
 40
0.2
 41
0.0
 46
0.0
 71
     7
 72
     1
  1
\C18;\c0;\FMS PGothic|b0|i0|c128;\H1.785714;\W1.000000;右吊元
 73
     1
 44
1.0
  0
MTEXT
  5
FA
330
70
100
AcDbEntity
  8
moji
100
AcDbMText
 10
19.90658950805664
 20
133.7572479248047
 30
0.0
 40
0.2
 41
0.0
 46
0.0
 71
     7
 72
     1
  1
\C18;\c0;\FMS PGothic|b0|i0|c128;\H1.785714;\W1.000000;ドア閉鎖
 73
     1
 44
1.0
  0
MTEXT
  5
FB
330
70
100
AcDbEntity
  8
moji
100
AcDbMText
 10
52.35332107543945
 20
133.5746307373047
 30
0.0
 40
0.2
 41
0.0
 46
0.0
 71
     7
 72
     1
  1
\C18;\c0;\FMS PGothic|b0|i0|c128;\H1.785714;\W1.000000;マグネット・ガスケット
 73
     1
 44
1.0
  0
MTEXT
  5
FC
330
70
100
AcDbEntity
  8
moji
100
AcDbMText
 10
20.03848838806153
 20
149.8192443847656
 30
0.0
 40
0.2
 41
0.0
 46
0.0
 71
     7
 72
     1
  1
\C18;\c0;\FMS PGothic|b0|i0|c128;\H1.785714;\W1.000000;冷却方法
 73
     1
 44
1.0
  0
MTEXT
  5
FD
330
70
100
AcDbEntity
  8
moji
100
AcDbMText
 10
59.84622192382812
 20
149.763427734375
 30
0.0
 40
0.2
 41
0.0
 46
0.0
 71
     7
 72
     1
  1
\C18;\c0;\FMS PGothic|b0|i0|c128;\H1.785714;\W1.000000;直冷式
 73
     1
 44
1.0
  0
MTEXT
  5
FE
330
70
100
AcDbEntity
  8
moji
100
AcDbMText
 10
19.97761154174805
 20
129.6196594238281
 30
0.0
 40
0.2
 41
0.0
 46
0.0
 71
     7
 72
     1
  1
\C18;\c0;\FMS PGothic|b0|i0|c128;\H1.785714;\W1.000000;断熱材
 73
     1
 44
1.0
  0
MTEXT
  5
FF
330
70
100
AcDbEntity
  8
moji
100
AcDbMText
 10
46.77600479125977
 20
129.573989868164
 30
0.0
 40
0.2
 41
0.0
 46
0.0
 71
     7
 72
     1
  1
\C18;\c0;\FMS PGothic|b0|i0|c128;\H1.785714;\W0.900000;ウレタン・フォーム（シクロペンタン）
 73
     1
 44
1.0
  0
MTEXT
  5
100
330
70
100
AcDbEntity
  8
moji
100
AcDbMText
 10
28.61499786376953
 20
177.9387512207031
 30
0.0
 40
0.2
 41
0.0
 46
0.0
 71
     7
 72
     1
  1
\C18;\c0;\FMS PGothic|b0|i0|c128;\H1.785714;\W0.800000;搬入時最小幅高
 73
     1
 44
1.0
  0
MTEXT
  5
101
330
70
100
AcDbEntity
  8
moji
100
AcDbMText
 10
28.59211349487305
 20
185.3473205566406
 30
0.0
 40
0.2
 41
0.0
 46
0.0
 71
     7
 72
     1
  1
\C18;\c0;\FMS PGothic|b0|i0|c128;\H1.785714;\W0.800000;扉を開けた時の
 73
     1
 44
1.0
  0
MTEXT
  5
102
330
70
100
AcDbEntity
  8
moji
100
AcDbMText
 10
28.55983352661133
 20
182.2191009521484
 30
0.0
 40
0.2
 41
0.0
 46
0.0
 71
     7
 72
     1
  1
\C18;\c0;\FMS PGothic|b0|i0|c128;\H1.785714;\W0.800000;最大奥行
 73
     1
 44
1.0
  0
MTEXT
  5
103
330
70
100
AcDbEntity
  8
moji
100
AcDbMText
 10
62.53493881225586
 20
173.7041778564453
 30
0.0
 40
0.2
 41
0.0
 46
0.0
 71
     7
 72
     1
  1
\C18;\c0;\FMS PGothic|b0|i0|c128;\H1.785714;\W1.000000;40
 73
     1
 44
1.0
  0
MTEXT
  5
104
330
70
100
AcDbEntity
  8
moji
100
AcDbMText
 10
61.70295715332031
 20
169.6791381835937
 30
0.0
 40
0.2
 41
0.0
 46
0.0
 71
     7
 72
     1
  1
\C18;\c0;\FMS PGothic|b0|i0|c128;\H1.785714;\W1.000000;112
 73
     1
 44
1.0
  0
MTEXT
  5
105
330
70
100
AcDbEntity
  8
moji
100
AcDbMText
 10
62.49435424804687
 20
165.619155883789
 30
0.0
 40
0.2
 41
0.0
 46
0.0
 71
     7
 72
     1
  1
\C18;\c0;\FMS PGothic|b0|i0|c128;\H1.785714;\W1.000000;30
 73
     1
 44
1.0
  0
MTEXT
  5
106
330
70
100
AcDbEntity
  8
moji
100
AcDbMText
 10
62.08850860595703
 20
125.4044189453125
 30
0.0
 40
0.2
 41
0.0
 46
0.0
 71
     7
 72
     1
  1
\C18;\c0;\FMS PGothic|b0|i0|c128;\H1.785714;\W1.000000;1.8
 73
     1
 44
1.0
  0
MTEXT
  5
107
330
70
100
AcDbEntity
  8
moji
100
AcDbMText
 10
20.099365234375
 20
165.8677215576172
 30
0.0
 40
0.2
 41
0.0
 46
0.0
 71
     7
 72
     1
  1
\C18;\c0;\FMS PGothic|b0|i0|c128;\H1.785714;\W1.000000;収納本数(フルボトル)
 73
     1
 44
1.0
  0
MTEXT
  5
108
330
70
100
AcDbEntity
  8
moji
100
AcDbMText
 10
61.83485794067383
 20
183.7124328613281
 30
0.0
 40
0.2
 41
0.0
 46
0.0
 71
     7
 72
     1
  1
\C18;\c0;\FMS PGothic|b0|i0|c128;\H1.785714;\W1.000000;982
 73
     1
 44
1.0
  0
MTEXT
  5
109
330
70
100
AcDbEntity
  8
moji
100
AcDbMText
 10
58.31922531127929
 20
193.8074493408203
 30
0.0
 40
0.2
 41
0.0
 46
0.0
 71
     7
 72
     1
  1
\C18;\c0;\FMS PGothic|b0|i0|c128;\H1.785714;\W1.000000;MWS04FL
 73
     1
 44
1.0
  0
MTEXT
  5
10A
330
70
100
AcDbEntity
  8
moji
100
AcDbMText
 10
56.38639450073242
 20
153.6621856689453
 30
0.0
 40
0.2
 41
0.0
 46
0.0
 71
     7
 72
     1
  1
\C18;\c0;\FMS PGothic|b0|i0|c128;\H1.785714;\W1.000000;100W / 100W
 73
     1
 44
1.0
  0
MTEXT
  5
10B
330
70
100
AcDbEntity
  8
moji
100
AcDbMText
 10
55.20944595336914
 20
189.7730102539062
 30
0.0
 40
0.2
 41
0.0
 46
0.0
 71
     7
 72
     1
  1
\C18;\c0;\FMS PGothic|b0|i0|c128;\H1.785714;\W1.000000;480 x 572 x 835
 73
     1
 44
1.0
  0
MTEXT
  5
10C
330
70
100
AcDbEntity
  8
moji
100
AcDbMText
 10
58.50692749023437
 20
177.7256774902344
 30
0.0
 40
0.2
 41
0.0
 46
0.0
 71
     7
 72
     1
  1
\C18;\c0;\FMS PGothic|b0|i0|c128;\H1.785714;\W1.000000;520 x 875
 73
     1
 44
1.0
  0
MTEXT
  5
10D
330
70
100
AcDbEntity
  8
moji
100
AcDbMText
 10
28.42339134216309
 20
153.8600463867187
 30
0.0
 40
0.2
 41
0.0
 46
0.0
 71
     7
 72
     1
  1
\C18;\c0;\FMS PGothic|b0|i0|c128;\H1.785714;\W1.000000;消費電力
 73
     1
 44
1.0
  0
MTEXT
  5
10E
330
70
100
AcDbEntity
  8
moji
100
AcDbMText
 10
54.34702682495117
 20
161.7565612792968
 30
0.0
 40
0.2
 41
0.0
 46
0.0
 71
     7
 72
     1
  1
\C18;\c0;\FMS PGothic|b0|i0|c128;\H1.785714;\W1.000000;単相・100V/120V
 73
     1
 44
1.0
  0
MTEXT
  5
10F
330
70
100
AcDbEntity
  8
moji
100
AcDbMText
 10
56.90384674072266
 20
157.653579711914
 30
0.0
 40
0.2
 41
0.0
 46
0.0
 71
     7
 72
     1
  1
\C18;\c0;\FMS PGothic|b0|i0|c128;\H1.785714;\W1.000000;50Hz / 60Hz
 73
     1
 44
1.0
  0
MTEXT
  5
110
330
70
100
AcDbEntity
  8
moji
100
AcDbMText
 10
28.55584335327149
 20
161.8022155761718
 30
0.0
 40
0.2
 41
0.0
 46
0.0
 71
     7
 72
     1
  1
\C18;\c0;\FMS PGothic|b0|i0|c128;\H1.785714;\W1.000000;相・電圧
 73
     1
 44
1.0
  0
MTEXT
  5
111
330
70
100
AcDbEntity
  8
moji
100
AcDbMText
 10
28.53548240661621
 20
157.8412780761718
 30
0.0
 40
0.2
 41
0.0
 46
0.0
 71
     7
 72
     1
  1
\C18;\c0;\FMS PGothic|b0|i0|c128;\H1.785714;\W1.000000;周波数
 73
     1
 44
1.0
  0
MTEXT
  5
112
330
70
100
AcDbEntity
  8
moji
100
AcDbMText
 10
20.41110229492188
 20
145.6585845947265
 30
0.0
 40
0.2
 41
0.0
 46
0.0
 71
     7
 72
     1
  1
\C18;\c0;\FMS PGothic|b0|i0|c128;\H1.785714;\W1.000000;設置
 73
     1
 44
1.0
  0
MTEXT
  5
113
330
70
100
AcDbEntity
  8
moji
100
AcDbMText
 10
20.39081001281738
 20
142.22216796875
 30
0.0
 40
0.2
 41
0.0
 46
0.0
 71
     7
 72
     1
  1
\C18;\c0;\FMS PGothic|b0|i0|c128;\H1.785714;\W1.000000;方式
 73
     1
 44
1.0
  0
MTEXT
  5
114
330
70
100
AcDbEntity
  8
moji
100
AcDbMText
 10
51.14086151123046
 20
145.8360443115234
 30
0.0
 40
0.2
 41
0.0
 46
0.0
 71
     7
 72
     1
  1
\C18;\c0;\FMS PGothic|b0|i0|c128;\H1.785714;\W1.000000;可（放熱スペース確保）
 73
     1
 44
1.0
  0
MTEXT
  5
115
330
70
100
AcDbEntity
  8
moji
100
AcDbMText
 10
61.44930267333984
 20
141.7392578125
 30
0.0
 40
0.2
 41
0.0
 46
0.0
 71
     7
 72
     1
  1
\C18;\c0;\FMS PGothic|b0|i0|c128;\H1.785714;\W1.000000;無し
 73
     1
 44
1.0
  0
MTEXT
  5
116
330
70
100
AcDbEntity
  8
moji
100
AcDbMText
 10
27.87911224365235
 20
145.7954559326172
 30
0.0
 40
0.2
 41
0.0
 46
0.0
 71
     7
 72
     1
  1
\C18;\c0;\FMS PGothic|b0|i0|c128;\H1.785714;\W1.000000;ビルト・イン
 73
     1
 44
1.0
  0
MTEXT
  5
117
330
70
100
AcDbEntity
  8
moji
100
AcDbMText
 10
27.92714118957519
 20
141.8356323242187
 30
0.0
 40
0.2
 41
0.0
 46
0.0
 71
     7
 72
     1
  1
\C18;\c0;\FMS PGothic|b0|i0|c128;\H1.785714;\W0.750000;ローラーキャスター
 73
     1
 44
1.0
  0
LINE
  5
118
330
70
100
AcDbEntity
  8
moji
 62
    18
420
        0
370
    18
100
AcDbLine
 10
18.78240130883568
 20
116.2729365380892
 30
0.0
 11
82.74652308156692
 21
116.2729365380892
 31
0.0
  0
LINE
  5
119
330
70
100
AcDbEntity
  8
moji
 62
    18
420
        0
370
    18
100
AcDbLine
 10
82.74652308156692
 20
116.2729365380892
 30
0.0
 11
82.74652308156692
 21
200.7426673769105
 31
0.0
  0
LINE
  5
11A
330
70
100
AcDbEntity
  8
moji
 62
    18
420
        0
370
    18
100
AcDbLine
 10
82.74652308156692
 20
200.7426673769105
 30
0.0
 11
18.78240130883568
 21
200.7426673769105
 31
0.0
  0
LINE
  5
11B
330
70
100
AcDbEntity
  8
moji
 62
    18
420
        0
370
    18
100
AcDbLine
 10
18.78240130883568
 20
200.7426673769105
 30
0.0
 11
18.78240130883568
 21
116.2729365380892
 31
0.0
  0
LINE
  5
11C
330
70
100
AcDbEntity
  8
moji
 62
    18
420
        0
370
    18
100
AcDbLine
 10
18.78240130883568
 20
192.6849794693835
 30
0.0
 11
82.74652308156692
 21
192.6849794693835
 31
0.0
  0
LINE
  5
11D
330
70
100
AcDbEntity
  8
moji
 62
    18
420
        0
370
    18
100
AcDbLine
 10
18.78240130883568
 20
176.6022199749268
 30
0.0
 11
82.74652308156692
 21
176.6022199749268
 31
0.0
  0
LINE
  5
11E
330
70
100
AcDbEntity
  8
moji
 62
    18
420
        0
370
    18
100
AcDbLine
 10
18.78240130883568
 20
196.7054916941924
 30
0.0
 11
82.74652308156692
 21
196.7054916941924
 31
0.0
  0
LINE
  5
11F
330
70
100
AcDbEntity
  8
moji
 62
    18
420
        0
370
    18
100
AcDbLine
 10
18.78240130883568
 20
168.5318479427242
 30
0.0
 11
82.74652308156692
 21
168.5318479427242
 31
0.0
  0
LINE
  5
120
330
70
100
AcDbEntity
  8
moji
 62
    18
420
        0
370
    18
100
AcDbLine
 10
27.56717046735412
 20
188.6061629067762
 30
0.0
 11
82.74652308156692
 21
188.6061629067762
 31
0.0
  0
LINE
  5
121
330
70
100
AcDbEntity
  8
moji
 62
    18
420
        0
370
    18
100
AcDbLine
 10
27.56717046735412
 20
180.5942728611771
 30
0.0
 11
82.74652308156692
 21
180.5942728611771
 31
0.0
  0
LINE
  5
122
330
70
100
AcDbEntity
  8
moji
 62
    18
420
        0
370
    18
100
AcDbLine
 10
18.78240130883568
 20
152.4789334475063
 30
0.0
 11
82.74652308156692
 21
152.4789334475063
 31
0.0
  0
LINE
  5
123
330
70
100
AcDbEntity
  8
moji
 62
    18
420
        0
370
    18
100
AcDbLine
 10
18.78240130883568
 20
148.4582435738921
 30
0.0
 11
82.74652308156692
 21
148.4582435738921
 31
0.0
  0
LINE
  5
124
330
70
100
AcDbEntity
  8
moji
 62
    18
420
        0
370
    18
100
AcDbLine
 10
18.78240130883568
 20
124.305289696038
 30
0.0
 11
82.74652308156692
 21
124.305289696038
 31
0.0
  0
LINE
  5
125
330
70
100
AcDbEntity
  8
moji
 62
    18
420
        0
370
    18
100
AcDbLine
 10
45.1033808395423
 20
196.7054916941924
 30
0.0
 11
45.1033808395423
 21
124.305289696038
 31
0.0
  0
LINE
  5
126
330
70
100
AcDbEntity
  8
moji
 62
    18
420
        0
370
    18
100
AcDbLine
 10
27.56717046735412
 20
192.6849794693835
 30
0.0
 11
27.56717046735412
 21
176.6020423261225
 31
0.0
  0
LINE
  5
127
330
70
100
AcDbEntity
  8
moji
 62
    18
420
        0
370
    18
100
AcDbLine
 10
27.56717046735412
 20
124.370524571781
 30
0.0
 11
27.56717046735412
 21
116.3138647927735
 31
0.0
  0
LINE
  5
128
330
70
100
AcDbEntity
  8
moji
 62
    18
420
        0
370
    18
100
AcDbLine
 10
18.78240130883568
 20
172.5817077501187
 30
0.0
 11
82.74652308156692
 21
172.5817077501187
 31
0.0
  0
LINE
  5
129
330
70
100
AcDbEntity
  8
moji
 62
    18
420
        0
370
    18
100
AcDbLine
 10
18.78240130883568
 20
132.2994859206592
 30
0.0
 11
82.74652308156692
 21
132.299485920661
 31
0.0
  0
LINE
  5
12A
330
70
100
AcDbEntity
  8
moji
 62
    18
420
        0
370
    18
100
AcDbLine
 10
18.78240130883568
 20
128.3023878083477
 30
0.0
 11
82.74652308156692
 21
128.3023878083477
 31
0.0
  0
LINE
  5
12B
330
70
100
AcDbEntity
  8
moji
 62
    18
420
        0
370
    18
100
AcDbLine
 10
18.78240130883568
 20
136.3964937208984
 30
0.0
 11
82.74652308156692
 21
136.3964937208984
 31
0.0
  0
LINE
  5
12C
330
70
100
AcDbEntity
  8
moji
 62
    18
420
        0
370
    18
100
AcDbLine
 10
18.78240130883568
 20
164.4820236650921
 30
0.0
 11
82.74652308156692
 21
164.4820236650921
 31
0.0
  0
LINE
  5
12D
330
70
100
AcDbEntity
  8
moji
 62
    18
420
        0
370
    18
100
AcDbLine
 10
27.56717046735412
 20
160.4616890890875
 30
0.0
 11
82.74652308156692
 21
160.4616890890875
 31
0.0
  0
LINE
  5
12E
330
70
100
AcDbEntity
  8
moji
 62
    18
420
        0
370
    18
100
AcDbLine
 10
27.56717046735412
 20
156.49926802351
 30
0.0
 11
82.74652308156692
 21
156.49926802351
 31
0.0
  0
LINE
  5
12F
330
70
100
AcDbEntity
  8
moji
 62
    18
420
        0
370
    18
100
AcDbLine
 10
27.56717046735412
 20
164.4820236650921
 30
0.0
 11
27.56717046735412
 21
152.5967146052162
 31
0.0
  0
LINE
  5
130
330
70
100
AcDbEntity
  8
moji
 62
    18
420
        0
370
    18
100
AcDbLine
 10
27.56717046735412
 20
148.4582435738921
 30
0.0
 11
27.56717046735412
 21
140.4168638266637
 31
0.0
  0
LINE
  5
131
330
70
100
AcDbEntity
  8
moji
 62
    18
420
        0
370
    18
100
AcDbLine
 10
18.78240130883568
 20
140.4168638266637
 30
0.0
 11
82.74652308156692
 21
140.4168638266637
 31
0.0
  0
LINE
  5
132
330
70
100
AcDbEntity
  8
moji
 62
    18
420
        0
370
    18
100
AcDbLine
 10
27.56717046735412
 20
144.6139944933948
 30
0.0
 11
82.74652308156692
 21
144.6139944933948
 31
0.0
  0
MTEXT
  5
133
330
70
100
AcDbEntity
  8
moji
100
AcDbMText
 10
20.08922004699707
 20
119.7826232910156
 30
0.0
 40
0.2
 41
0.0
 46
0.0
 71
     7
 72
     1
  1
\C18;\c0;\FMS PGothic|b0|i0|c128;\H1.785714;\W1.000000;備考
 73
     1
 44
1.0
  0
MTEXT
  5
134
330
70
100
AcDbEntity
  8
moji
100
AcDbMText
 10
29.99550819396973
 20
121.1190948486328
 30
0.0
 40
0.2
 41
0.0
 46
0.0
 71
     7
 72
     1
  1
\C18;\c0;\FMS PGothic|b0|i0|c128;\H1.785714;\W1.000000;60Hz地域で使用する場合は、
 73
     1
 44
1.0
  0
MTEXT
  5
135
330
70
100
AcDbEntity
  8
moji
100
AcDbMText
 10
30.07619667053223
 20
117.808120727539
 30
0.0
 40
0.2
 41
0.0
 46
0.0
 71
     7
 72
     1
  1
\C18;\c0;\FMS PGothic|b0|i0|c128;\H1.785714;\W1.000000;純正の昇圧トランスを接続して使用すること。
 73
     1
 44
1.0
  0
LINE
  5
137
330
70
100
AcDbEntity
  8
sunpo
 62
     8
420
  8421504
370
    15
100
AcDbLine
 10
215.4588722145236
 20
186.3605364403229
 30
0.0
 11
215.4588722145236
 21
192.7891078688944
 31
0.0
  0
LINE
  5
138
330
70
100
AcDbEntity
  8
sunpo
 62
     8
420
  8421504
370
    15
100
AcDbLine
 10
181.1731579288098
 20
186.3605364403229
 30
0.0
 11
181.1731579288098
 21
192.7891078688944
 31
0.0
  0
LINE
  5
139
330
70
100
AcDbEntity
  8
sunpo
 62
     8
420
  8421504
370
    15
100
AcDbLine
 10
214.7445865002373
 20
192.7891078688944
 30
0.0
 11
181.8874436430942
 21
192.7891078688944
 31
0.0
  0
CIRCLE
  5
13A
330
70
100
AcDbEntity
  8
sunpo
 62
     8
420
  8421504
370
    25
100
AcDbCircle
 10
215.4588722145231
 20
192.7891078688944
 30
0.0
 40
0.1785714285717858
  0
LINE
  5
13B
330
70
100
AcDbEntity
  8
sunpo
 62
     8
420
  8421504
370
     0
100
AcDbLine
 10
215.1017293573805
 20
192.7891078688944
 30
0.0
 11
214.7445865002373
 21
192.7891078688944
 31
0.0
  0
CIRCLE
  5
13C
330
70
100
AcDbEntity
  8
sunpo
 62
     8
420
  8421504
370
    25
100
AcDbCircle
 10
181.1731579288093
 20
192.7891078688947
 30
0.0
 40
0.1785714285716722
  0
LINE
  5
13D
330
70
100
AcDbEntity
  8
sunpo
 62
     8
420
  8421504
370
     0
100
AcDbLine
 10
181.5303007859511
 20
192.7891078688944
 30
0.0
 11
181.8874436430942
 21
192.7891078688944
 31
0.0
  0
MTEXT
  5
13E
330
70
100
AcDbEntity
  8
sunpo
100
AcDbMText
 10
196.2766418457031
 20
193.5034027099609
 30
0.0
 40
0.2
 41
0.0
 46
0.0
 71
     7
 72
     1
  1
\C8;\c8421504;\FMS PGothic|b0|i0|c128;\H1.785714;\W1.000000;480
 73
     1
 44
1.0
  0
LINE
  5
13F
330
70
100
AcDbEntity
  8
sunpo
 62
     8
420
  8421504
370
    15
100
AcDbLine
 10
164.0807175857553
 20
187.186781621318
 30
0.0
 11
164.0807175857553
 21
193.6153530498886
 31
0.0
  0
LINE
  5
140
330
70
100
AcDbEntity
  8
sunpo
 62
     8
420
  8421504
370
    15
100
AcDbLine
 10
129.7950033000415
 20
187.186781621318
 30
0.0
 11
129.7950033000415
 21
193.6153530498886
 31
0.0
  0
LINE
  5
141
330
70
100
AcDbEntity
  8
sunpo
 62
     8
420
  8421504
370
    15
100
AcDbLine
 10
163.3664318714691
 20
193.6153530498886
 30
0.0
 11
130.5092890143278
 21
193.6153530498886
 31
0.0
  0
CIRCLE
  5
142
330
70
100
AcDbEntity
  8
sunpo
 62
     8
420
  8421504
370
    25
100
AcDbCircle
 10
164.0807175857558
 20
193.6153530498889
 30
0.0
 40
0.1785714285712174
  0
LINE
  5
143
330
70
100
AcDbEntity
  8
sunpo
 62
     8
420
  8421504
370
     0
100
AcDbLine
 10
163.723574728614
 20
193.6153530498886
 30
0.0
 11
163.3664318714691
 21
193.6153530498886
 31
0.0
  0
CIRCLE
  5
144
330
70
100
AcDbEntity
  8
sunpo
 62
     8
420
  8421504
370
    25
100
AcDbCircle
 10
129.7950033000415
 20
193.6153530498889
 30
0.0
 40
0.1785714285714448
  0
LINE
  5
145
330
70
100
AcDbEntity
  8
sunpo
 62
     8
420
  8421504
370
     0
100
AcDbLine
 10
130.1521461571847
 20
193.6153530498886
 30
0.0
 11
130.5092890143278
 21
193.6153530498886
 31
0.0
  0
MTEXT
  5
146
330
70
100
AcDbEntity
  8
sunpo
100
AcDbMText
 10
144.8984985351562
 20
194.3296356201172
 30
0.0
 40
0.2
 41
0.0
 46
0.0
 71
     7
 72
     1
  1
\C8;\c8421504;\FMS PGothic|b0|i0|c128;\H1.785714;\W1.000000;480
 73
     1
 44
1.0
  0
LINE
  5
147
330
70
100
AcDbEntity
  8
sunpo
 62
     8
420
  8421504
370
    15
100
AcDbLine
 10
129.0807175857562
 20
152.5439244784602
 30
0.0
 11
122.6521461571856
 21
152.5439244784602
 31
0.0
  0
LINE
  5
148
330
70
100
AcDbEntity
  8
sunpo
 62
     8
420
  8421504
370
    15
100
AcDbLine
 10
129.0807175857562
 20
186.4724959070317
 30
0.0
 11
122.6521461571856
 21
186.4724959070317
 31
0.0
  0
LINE
  5
149
330
70
100
AcDbEntity
  8
sunpo
 62
     8
420
  8421504
370
    15
100
AcDbLine
 10
122.6521461571856
 20
153.2582101927455
 30
0.0
 11
122.6521461571856
 21
185.7582101927464
 31
0.0
  0
CIRCLE
  5
14A
330
70
100
AcDbEntity
  8
sunpo
 62
     8
420
  8421504
370
    25
100
AcDbCircle
 10
122.6521461571854
 20
152.5439244784604
 30
0.0
 40
0.1785714285713311
  0
LINE
  5
14B
330
70
100
AcDbEntity
  8
sunpo
 62
     8
420
  8421504
370
     0
100
AcDbLine
 10
122.6521461571856
 20
152.9010673356033
 30
0.0
 11
122.6521461571856
 21
153.2582101927455
 31
0.0
  0
CIRCLE
  5
14C
330
70
100
AcDbEntity
  8
sunpo
 62
     8
420
  8421504
370
    25
100
AcDbCircle
 10
122.6521461571854
 20
186.472495907032
 30
0.0
 40
0.1785714285713311
  0
LINE
  5
14D
330
70
100
AcDbEntity
  8
sunpo
 62
     8
420
  8421504
370
     0
100
AcDbLine
 10
122.6521461571856
 20
186.1153530498886
 30
0.0
 11
122.6521461571856
 21
185.7582101927464
 31
0.0
  0
MTEXT
  5
14E
330
70
100
AcDbEntity
  8
sunpo
100
AcDbMText
 10
121.9378509521484
 20
167.4892578124991
 30
0.0
 40
0.2
 41
0.0
 46
0.0
 71
     7
 72
     1
  1
\C8;\c8421504;\FMS PGothic|b0|i0|c128;\H1.785714;\W1.000000;475
 11
0.0000000000000001
 21
1.0
 31
0.0
 73
     1
 44
1.0
  0
LINE
  5
14F
330
70
100
AcDbEntity
  8
sunpo
 62
     8
420
  8421504
370
    15
100
AcDbLine
 10
129.0807175857562
 20
148.9010673356042
 30
0.0
 11
115.5092890143287
 21
148.9010673356042
 31
0.0
  0
LINE
  5
150
330
70
100
AcDbEntity
  8
sunpo
 62
     8
420
  8421504
370
    15
100
AcDbLine
 10
129.0807175857562
 20
186.4724959070317
 30
0.0
 11
115.5092890143287
 21
186.4724959070317
 31
0.0
  0
LINE
  5
151
330
70
100
AcDbEntity
  8
sunpo
 62
     8
420
  8421504
370
    15
100
AcDbLine
 10
115.5092890143287
 20
149.6153530498886
 30
0.0
 11
115.5092890143287
 21
185.7582101927464
 31
0.0
  0
CIRCLE
  5
152
330
70
100
AcDbEntity
  8
sunpo
 62
     8
420
  8421504
370
    25
100
AcDbCircle
 10
115.509289014328
 20
148.9010673356037
 30
0.0
 40
0.1785714285714448
  0
LINE
  5
153
330
70
100
AcDbEntity
  8
sunpo
 62
     8
420
  8421504
370
     0
100
AcDbLine
 10
115.5092890143287
 20
149.2582101927455
 30
0.0
 11
115.5092890143287
 21
149.6153530498886
 31
0.0
  0
CIRCLE
  5
154
330
70
100
AcDbEntity
  8
sunpo
 62
     8
420
  8421504
370
    25
100
AcDbCircle
 10
115.509289014328
 20
186.472495907032
 30
0.0
 40
0.1785714285711037
  0
LINE
  5
155
330
70
100
AcDbEntity
  8
sunpo
 62
     8
420
  8421504
370
     0
100
AcDbLine
 10
115.5092890143287
 20
186.1153530498886
 30
0.0
 11
115.5092890143287
 21
185.7582101927464
 31
0.0
  0
MTEXT
  5
156
330
70
100
AcDbEntity
  8
sunpo
100
AcDbMText
 10
114.7950134277343
 20
165.6123046874991
 30
0.0
 40
0.2
 41
0.0
 46
0.0
 71
     7
 72
     1
  1
\C8;\c8421504;\FMS PGothic|b0|i0|c128;\H1.785714;\W1.000000;526
 11
0.0000000000000001
 21
1.0
 31
0.0
 73
     1
 44
1.0
  0
LINE
  5
157
330
70
100
AcDbEntity
  8
sunpo
 62
     8
420
  8421504
370
    15
100
AcDbLine
 10
129.0807175857562
 20
145.6153530498886
 30
0.0
 11
108.3664318714709
 21
145.6153530498886
 31
0.0
  0
LINE
  5
158
330
70
100
AcDbEntity
  8
sunpo
 62
     8
420
  8421504
370
    15
100
AcDbLine
 10
129.0807175857562
 20
186.4724959070317
 30
0.0
 11
108.3664318714709
 21
186.4724959070317
 31
0.0
  0
LINE
  5
159
330
70
100
AcDbEntity
  8
sunpo
 62
     8
420
  8421504
370
    15
100
AcDbLine
 10
108.3664318714709
 20
146.3296387641749
 30
0.0
 11
108.3664318714709
 21
185.7582101927464
 31
0.0
  0
CIRCLE
  5
15A
330
70
100
AcDbEntity
  8
sunpo
 62
     8
420
  8421504
370
    25
100
AcDbCircle
 10
108.3664318714707
 20
145.6153530498891
 30
0.0
 40
0.1785714285716722
  0
LINE
  5
15B
330
70
100
AcDbEntity
  8
sunpo
 62
     8
420
  8421504
370
     0
100
AcDbLine
 10
108.3664318714709
 20
145.9724959070317
 30
0.0
 11
108.3664318714709
 21
146.3296387641749
 31
0.0
  0
CIRCLE
  5
15C
330
70
100
AcDbEntity
  8
sunpo
 62
     8
420
  8421504
370
    25
100
AcDbCircle
 10
108.3664318714707
 20
186.472495907032
 30
0.0
 40
0.1785714285713311
  0
LINE
  5
15D
330
70
100
AcDbEntity
  8
sunpo
 62
     8
420
  8421504
370
     0
100
AcDbLine
 10
108.3664318714709
 20
186.1153530498886
 30
0.0
 11
108.3664318714709
 21
185.7582101927464
 31
0.0
  0
MTEXT
  5
15E
330
70
100
AcDbEntity
  8
sunpo
100
AcDbMText
 10
107.6521453857422
 20
163.9638671874991
 30
0.0
 40
0.2
 41
0.0
 46
0.0
 71
     7
 72
     1
  1
\C8;\c8421504;\FMS PGothic|b0|i0|c128;\H1.785714;\W1.000000;572
 11
0.0000000000000001
 21
1.0
 31
0.0
 73
     1
 44
1.0
  0
LINE
  5
15F
330
70
100
AcDbEntity
  8
sunpo
 62
     8
420
  8421504
370
    15
100
AcDbLine
 10
164.7950033000415
 20
116.3296387641749
 30
0.0
 11
171.223574728614
 21
116.3296387641749
 31
0.0
  0
LINE
  5
160
330
70
100
AcDbEntity
  8
sunpo
 62
     8
420
  8421504
370
    15
100
AcDbLine
 10
164.7950033000415
 20
186.4724959070317
 30
0.0
 11
171.223574728614
 21
186.4724959070317
 31
0.0
  0
LINE
  5
161
330
70
100
AcDbEntity
  8
sunpo
 62
     8
420
  8421504
370
    15
100
AcDbLine
 10
171.223574728614
 20
117.0439244784611
 30
0.0
 11
171.223574728614
 21
185.7582101927464
 31
0.0
  0
CIRCLE
  5
162
330
70
100
AcDbEntity
  8
sunpo
 62
     8
420
  8421504
370
    25
100
AcDbCircle
 10
171.223574728614
 20
116.3296387641749
 30
0.0
 40
0.178571428570649
  0
LINE
  5
163
330
70
100
AcDbEntity
  8
sunpo
 62
     8
420
  8421504
370
     0
100
AcDbLine
 10
171.223574728614
 20
116.686781621318
 30
0.0
 11
171.223574728614
 21
117.0439244784611
 31
0.0
  0
CIRCLE
  5
164
330
70
100
AcDbEntity
  8
sunpo
 62
     8
420
  8421504
370
    25
100
AcDbCircle
 10
171.223574728614
 20
186.472495907032
 30
0.0
 40
0.1785714285709901
  0
LINE
  5
165
330
70
100
AcDbEntity
  8
sunpo
 62
     8
420
  8421504
370
     0
100
AcDbLine
 10
171.223574728614
 20
186.1153530498886
 30
0.0
 11
171.223574728614
 21
185.7582101927464
 31
0.0
  0
MTEXT
  5
166
330
70
100
AcDbEntity
  8
sunpo
100
AcDbMText
 10
170.50927734375
 20
149.3056640625
 30
0.0
 40
0.2
 41
0.0
 46
0.0
 71
     7
 72
     1
  1
\C8;\c8421504;\FMS PGothic|b0|i0|c128;\H1.785714;\W1.000000;982
 11
0.0000000000000001
 21
1.0
 31
0.0
 73
     1
 44
1.0
  0
LINE
  5
167
330
70
100
AcDbEntity
  8
sunpo
 62
     8
420
  8421504
370
    15
100
AcDbLine
 10
235.3391158126851
 20
186.3623415764022
 30
0.0
 11
235.3391158126851
 21
192.7909130049738
 31
0.0
  0
LINE
  5
168
330
70
100
AcDbEntity
  8
sunpo
 62
     8
420
  8421504
370
    15
100
AcDbLine
 10
269.2676872412576
 20
186.3623415764022
 30
0.0
 11
269.2676872412576
 21
192.7909130049738
 31
0.0
  0
LINE
  5
169
330
70
100
AcDbEntity
  8
sunpo
 62
     8
420
  8421504
370
    15
100
AcDbLine
 10
236.0534015269713
 20
192.7909130049738
 30
0.0
 11
268.5534015269714
 21
192.7909130049738
 31
0.0
  0
CIRCLE
  5
16A
330
70
100
AcDbEntity
  8
sunpo
 62
     8
420
  8421504
370
    25
100
AcDbCircle
 10
235.3391158126851
 20
192.7909130049738
 30
0.0
 40
0.1785714285711037
  0
LINE
  5
16B
330
70
100
AcDbEntity
  8
sunpo
 62
     8
420
  8421504
370
     0
100
AcDbLine
 10
235.6962586698283
 20
192.7909130049738
 30
0.0
 11
236.0534015269713
 21
192.7909130049738
 31
0.0
  0
CIRCLE
  5
16C
330
70
100
AcDbEntity
  8
sunpo
 62
     8
420
  8421504
370
    25
100
AcDbCircle
 10
269.2676872412572
 20
192.7909130049738
 30
0.0
 40
0.1785714285717858
  0
LINE
  5
16D
330
70
100
AcDbEntity
  8
sunpo
 62
     8
420
  8421504
370
     0
100
AcDbLine
 10
268.9105443841145
 20
192.7909130049738
 30
0.0
 11
268.5534015269714
 21
192.7909130049738
 31
0.0
  0
MTEXT
  5
16E
330
70
100
AcDbEntity
  8
sunpo
100
AcDbMText
 10
250.2843170166016
 20
193.5052032470703
 30
0.0
 40
0.2
 41
0.0
 46
0.0
 71
     7
 72
     1
  1
\C8;\c8421504;\FMS PGothic|b0|i0|c128;\H1.785714;\W1.000000;475
 73
     1
 44
1.0
  0
LINE
  5
16F
330
70
100
AcDbEntity
  8
sunpo
 62
     8
420
  8421504
370
    15
100
AcDbLine
 10
231.6962586698283
 20
186.3667306044281
 30
0.0
 11
231.6962586698283
 21
199.9337701478307
 31
0.0
  0
LINE
  5
170
330
70
100
AcDbEntity
  8
sunpo
 62
     8
420
  8421504
370
    15
100
AcDbLine
 10
269.2676872412576
 20
186.3623415764022
 30
0.0
 11
269.2676872412576
 21
199.9337701478307
 31
0.0
  0
LINE
  5
171
330
70
100
AcDbEntity
  8
sunpo
 62
     8
420
  8421504
370
    15
100
AcDbLine
 10
232.4105443841145
 20
199.9337701478307
 30
0.0
 11
268.5534015269714
 21
199.9337701478307
 31
0.0
  0
CIRCLE
  5
172
330
70
100
AcDbEntity
  8
sunpo
 62
     8
420
  8421504
370
    25
100
AcDbCircle
 10
231.6962586698283
 20
199.9337701478309
 30
0.0
 40
0.1785714285709901
  0
LINE
  5
173
330
70
100
AcDbEntity
  8
sunpo
 62
     8
420
  8421504
370
     0
100
AcDbLine
 10
232.0534015269714
 20
199.9337701478307
 30
0.0
 11
232.4105443841145
 21
199.9337701478307
 31
0.0
  0
CIRCLE
  5
174
330
70
100
AcDbEntity
  8
sunpo
 62
     8
420
  8421504
370
    25
100
AcDbCircle
 10
269.2676872412572
 20
199.9337701478309
 30
0.0
 40
0.1785714285716722
  0
LINE
  5
175
330
70
100
AcDbEntity
  8
sunpo
 62
     8
420
  8421504
370
     0
100
AcDbLine
 10
268.9105443841145
 20
199.9337701478307
 30
0.0
 11
268.5534015269714
 21
199.9337701478307
 31
0.0
  0
MTEXT
  5
176
330
70
100
AcDbEntity
  8
sunpo
100
AcDbMText
 10
248.4070892333984
 20
200.6480560302734
 30
0.0
 40
0.2
 41
0.0
 46
0.0
 71
     7
 72
     1
  1
\C8;\c8421504;\FMS PGothic|b0|i0|c128;\H1.785714;\W1.000000;526
 73
     1
 44
1.0
  0
LINE
  5
177
330
70
100
AcDbEntity
  8
sunpo
 62
     8
420
  8421504
370
    15
100
AcDbLine
 10
228.4105443841145
 20
186.3605364403229
 30
0.0
 11
228.4105443841145
 21
207.0766272906885
 31
0.0
  0
LINE
  5
178
330
70
100
AcDbEntity
  8
sunpo
 62
     8
420
  8421504
370
    15
100
AcDbLine
 10
269.2676872412576
 20
186.3623415764022
 30
0.0
 11
269.2676872412576
 21
207.0766272906885
 31
0.0
  0
LINE
  5
179
330
70
100
AcDbEntity
  8
sunpo
 62
     8
420
  8421504
370
    15
100
AcDbLine
 10
229.1248300983989
 20
207.0766272906885
 30
0.0
 11
268.5534015269714
 21
207.0766272906885
 31
0.0
  0
CIRCLE
  5
17A
330
70
100
AcDbEntity
  8
sunpo
 62
     8
420
  8421504
370
    25
100
AcDbCircle
 10
228.410544384114
 20
207.0766272906885
 30
0.0
 40
0.1785714285717858
  0
LINE
  5
17B
330
70
100
AcDbEntity
  8
sunpo
 62
     8
420
  8421504
370
     0
100
AcDbLine
 10
228.7676872412576
 20
207.0766272906885
 30
0.0
 11
229.1248300983989
 21
207.0766272906885
 31
0.0
  0
CIRCLE
  5
17C
330
70
100
AcDbEntity
  8
sunpo
 62
     8
420
  8421504
370
    25
100
AcDbCircle
 10
269.2676872412572
 20
207.0766272906883
 30
0.0
 40
0.1785714285714448
  0
LINE
  5
17D
330
70
100
AcDbEntity
  8
sunpo
 62
     8
420
  8421504
370
     0
100
AcDbLine
 10
268.9105443841145
 20
207.0766272906885
 30
0.0
 11
268.5534015269714
 21
207.0766272906885
 31
0.0
  0
MTEXT
  5
17E
330
70
100
AcDbEntity
  8
sunpo
100
AcDbMText
 10
246.7591705322266
 20
207.7909088134766
 30
0.0
 40
0.2
 41
0.0
 46
0.0
 71
     7
 72
     1
  1
\C8;\c8421504;\FMS PGothic|b0|i0|c128;\H1.785714;\W1.000000;572
 73
     1
 44
1.0
  0
LINE
  5
17F
330
70
100
AcDbEntity
  8
sunpo
 62
     8
420
  8421504
370
    15
100
AcDbLine
 10
216.1731579288098
 20
126.8296387641749
 30
0.0
 11
224.5655571685857
 21
126.8296387641749
 31
0.0
  0
LINE
  5
180
330
70
100
AcDbEntity
  8
sunpo
 62
     8
420
  8421504
370
    15
100
AcDbLine
 10
216.1731579288098
 20
186.4722143541184
 30
0.0
 11
224.5655571685857
 21
186.4722143541184
 31
0.0
  0
LINE
  5
181
330
70
100
AcDbEntity
  8
sunpo
 62
     8
420
  8421504
370
    15
100
AcDbLine
 10
224.5655571685857
 20
127.5439244784593
 30
0.0
 11
224.5655571685857
 21
185.7579286398322
 31
0.0
  0
CIRCLE
  5
182
330
70
100
AcDbEntity
  8
sunpo
 62
     8
420
  8421504
370
    25
100
AcDbCircle
 10
224.5655571685861
 20
126.8296387641749
 30
0.0
 40
0.1785714285708764
  0
LINE
  5
183
330
70
100
AcDbEntity
  8
sunpo
 62
     8
420
  8421504
370
     0
100
AcDbLine
 10
224.5655571685857
 20
127.186781621318
 30
0.0
 11
224.5655571685857
 21
127.5439244784593
 31
0.0
  0
CIRCLE
  5
184
330
70
100
AcDbEntity
  8
sunpo
 62
     8
420
  8421504
370
    25
100
AcDbCircle
 10
224.5655571685861
 20
186.4722143541182
 30
0.0
 40
0.1785714285709901
  0
LINE
  5
185
330
70
100
AcDbEntity
  8
sunpo
 62
     8
420
  8421504
370
     0
100
AcDbLine
 10
224.5655571685857
 20
186.1150714969753
 30
0.0
 11
224.5655571685857
 21
185.7579286398322
 31
0.0
  0
MTEXT
  5
186
330
70
100
AcDbEntity
  8
sunpo
100
AcDbMText
 10
223.8512725830078
 20
154.5859374999991
 30
0.0
 40
0.2
 41
0.0
 46
0.0
 71
     7
 72
     1
  1
\C8;\c8421504;\FMS PGothic|b0|i0|c128;\H1.785714;\W1.000000;835
 11
0.0000000000000001
 21
1.0
 31
0.0
 73
     1
 44
1.0
  0
LINE
  5
187
330
70
100
AcDbEntity
  8
sunpo
 62
     8
420
  8421504
370
    15
100
AcDbLine
 10
269.9819729555438
 20
126.8296387641749
 30
0.0
 11
277.2549752930427
 21
126.8296387641749
 31
0.0
  0
LINE
  5
188
330
70
100
AcDbEntity
  8
sunpo
 62
     8
420
  8421504
370
    15
100
AcDbLine
 10
269.9819729555438
 20
186.4724959070317
 30
0.0
 11
277.2549752930427
 21
186.4724959070317
 31
0.0
  0
LINE
  5
189
330
70
100
AcDbEntity
  8
sunpo
 62
     8
420
  8421504
370
    15
100
AcDbLine
 10
277.2549752930427
 20
127.5439244784593
 30
0.0
 11
277.2549752930427
 21
185.7582101927464
 31
0.0
  0
CIRCLE
  5
18A
330
70
100
AcDbEntity
  8
sunpo
 62
     8
420
  8421504
370
    25
100
AcDbCircle
 10
277.2549752930422
 20
126.8296387641749
 30
0.0
 40
0.1785714285722406
  0
LINE
  5
18B
330
70
100
AcDbEntity
  8
sunpo
 62
     8
420
  8421504
370
     0
100
AcDbLine
 10
277.2549752930427
 20
127.186781621318
 30
0.0
 11
277.2549752930427
 21
127.5439244784593
 31
0.0
  0
CIRCLE
  5
18C
330
70
100
AcDbEntity
  8
sunpo
 62
     8
420
  8421504
370
    25
100
AcDbCircle
 10
277.2549752930422
 20
186.4724959070317
 30
0.0
 40
0.1785714285717858
  0
LINE
  5
18D
330
70
100
AcDbEntity
  8
sunpo
 62
     8
420
  8421504
370
     0
100
AcDbLine
 10
277.2549752930427
 20
186.1153530498886
 30
0.0
 11
277.2549752930427
 21
185.7582101927464
 31
0.0
  0
MTEXT
  5
18E
330
70
100
AcDbEntity
  8
sunpo
100
AcDbMText
 10
276.5406894683838
 20
154.5859374999991
 30
0.0
 40
0.2
 41
0.0
 46
0.0
 71
     7
 72
     1
  1
\C8;\c8421504;\FMS PGothic|b0|i0|c128;\H1.785714;\W1.000000;835
 11
0.0000000000000001
 21
1.0
 31
0.0
 73
     1
 44
1.0
  0
LINE
  5
18F
330
70
100
AcDbEntity
  8
sunpo
 62
     8
420
  8421504
370
    15
100
AcDbLine
 10
269.9819729555438
 20
126.8296387641749
 30
0.0
 11
273.6835467216115
 21
126.8296387641749
 31
0.0
  0
LINE
  5
190
330
70
100
AcDbEntity
  8
sunpo
 62
     8
420
  8421504
370
    15
100
AcDbLine
 10
269.9819729555438
 20
128.4010673356024
 30
0.0
 11
273.6835467216115
 21
128.4010673356024
 31
0.0
  0
LINE
  5
191
330
70
100
AcDbEntity
  8
sunpo
 62
     8
420
  8421504
370
    15
100
AcDbLine
 10
273.6835467216115
 20
126.1153530498886
 30
0.0
 11
273.6835467216115
 21
125.4010673356042
 31
0.0
  0
LINE
  5
192
330
70
100
AcDbEntity
  8
sunpo
 62
     8
420
  8421504
370
    15
100
AcDbLine
 10
273.6835467216115
 20
129.1153530498886
 30
0.0
 11
273.6835467216115
 21
129.8296387641749
 31
0.0
  0
MTEXT
  5
193
330
70
100
AcDbEntity
  8
sunpo
100
AcDbMText
 10
272.995174407959
 20
123.6123046875
 30
0.0
 40
0.2
 41
0.0
 46
0.0
 71
     7
 72
     1
  1
\C8;\c8421504;\FMS PGothic|b0|i0|c128;\H1.785714;\W1.000000;22
 11
0.0000000000000001
 21
1.0
 31
0.0
 73
     1
 44
1.0
  0
LINE
  5
194
330
70
100
AcDbEntity
  8
sunpo
 62
     8
420
  8421504
370
    15
100
AcDbLine
 10
273.6835467216115
 20
126.8296387641749
 30
0.0
 11
273.6835467216115
 21
128.4010673356024
 31
0.0
  0
CIRCLE
  5
195
330
70
100
AcDbEntity
  8
sunpo
 62
     8
420
  8421504
370
    25
100
AcDbCircle
 10
273.6835467216129
 20
126.8296387641749
 30
0.0
 40
0.1785714285722406
  0
LINE
  5
196
330
70
100
AcDbEntity
  8
sunpo
 62
     8
420
  8421504
370
     0
100
AcDbLine
 10
273.6835467216115
 20
126.4724959070318
 30
0.0
 11
273.6835467216115
 21
126.1153530498886
 31
0.0
  0
CIRCLE
  5
197
330
70
100
AcDbEntity
  8
sunpo
 62
     8
420
  8421504
370
    25
100
AcDbCircle
 10
273.6835467216129
 20
128.4010673356029
 30
0.0
 40
0.1785714285720132
  0
LINE
  5
198
330
70
100
AcDbEntity
  8
sunpo
 62
     8
420
  8421504
370
     0
100
AcDbLine
 10
273.6835467216115
 20
128.7582101927455
 30
0.0
 11
273.6835467216115
 21
129.1153530498886
 31
0.0
  0
LINE
  5
199
330
70
100
AcDbEntity
  8
sunpo
 62
     8
420
  8421504
370
    15
100
AcDbLine
 10
217.2925548310868
 20
126.8296387641749
 30
0.0
 11
220.9941285971581
 21
126.8296387641749
 31
0.0
  0
LINE
  5
19A
330
70
100
AcDbEntity
  8
sunpo
 62
     8
420
  8421504
370
    15
100
AcDbLine
 10
217.2925548310868
 20
128.2582101927455
 30
0.0
 11
220.9941285971581
 21
128.2582101927455
 31
0.0
  0
LINE
  5
19B
330
70
100
AcDbEntity
  8
sunpo
 62
     8
420
  8421504
370
    15
100
AcDbLine
 10
220.9941285971581
 20
126.1153530498886
 30
0.0
 11
220.9941285971581
 21
125.4010673356042
 31
0.0
  0
LINE
  5
19C
330
70
100
AcDbEntity
  8
sunpo
 62
     8
420
  8421504
370
    15
100
AcDbLine
 10
220.9941285971581
 20
128.9724959070317
 30
0.0
 11
220.9941285971581
 21
129.686781621318
 31
0.0
  0
MTEXT
  5
19D
330
70
100
AcDbEntity
  8
sunpo
100
AcDbMText
 10
220.3057556152344
 20
121.40234375
 30
0.0
 40
0.2
 41
0.0
 46
0.0
 71
     7
 72
     1
  1
\C8;\c8421504;\FMS PGothic|b0|i0|c128;\H1.785714;\W1.000000;20
 11
0.0000000000000001
 21
1.0
 31
0.0
 73
     1
 44
1.0
  0
LINE
  5
19E
330
70
100
AcDbEntity
  8
sunpo
 62
     8
420
  8421504
370
    15
100
AcDbLine
 10
220.9941285971581
 20
126.8296387641749
 30
0.0
 11
220.9941285971581
 21
128.2582101927455
 31
0.0
  0
CIRCLE
  5
19F
330
70
100
AcDbEntity
  8
sunpo
 62
     8
420
  8421504
370
    25
100
AcDbCircle
 10
220.9941285971577
 20
126.8296387641749
 30
0.0
 40
0.1785714285713311
  0
LINE
  5
1A0
330
70
100
AcDbEntity
  8
sunpo
 62
     8
420
  8421504
370
     0
100
AcDbLine
 10
220.9941285971581
 20
126.4724959070318
 30
0.0
 11
220.9941285971581
 21
126.1153530498886
 31
0.0
  0
CIRCLE
  5
1A1
330
70
100
AcDbEntity
  8
sunpo
 62
     8
420
  8421504
370
    25
100
AcDbCircle
 10
220.9941285971577
 20
128.258210192746
 30
0.0
 40
0.1785714285720132
  0
LINE
  5
1A2
330
70
100
AcDbEntity
  8
sunpo
 62
     8
420
  8421504
370
     0
100
AcDbLine
 10
220.9941285971581
 20
128.6153530498886
 30
0.0
 11
220.9941285971581
 21
128.9724959070317
 31
0.0
  0
MTEXT
  5
1A3
330
70
100
AcDbEntity
  8
sunpo
100
AcDbMText
 10
219.1871566772443
 20
124.2871093750018
 30
0.0
 40
0.2
 41
0.0
 46
0.0
 71
     7
 72
     1
  1
\C8;\c8421504;\FMS PGothic|b0|i0|c128;\H1.071429;\W1.000000;-0
 11
-0.0000000000000002
 21
1.0
 31
0.0
 73
     1
 44
1.0
  0
MTEXT
  5
1A4
330
70
100
AcDbEntity
  8
sunpo
100
AcDbMText
 10
220.4504394531232
 20
124.2871093750018
 30
0.0
 40
0.2
 41
0.0
 46
0.0
 71
     7
 72
     1
  1
\C8;\c8421504;\FMS PGothic|b0|i0|c128;\H1.071429;\W1.000000;+10
 11
-0.0000000000000002
 21
1.0
 31
0.0
 73
     1
 44
1.0
  0
MTEXT
  5
1A5
330
70
100
AcDbEntity
  8
sunpo
100
AcDbMText
 10
155.0298156738281
 20
196.763671875
 30
0.0
 40
0.2
 41
0.0
 46
0.0
 71
     7
 72
     1
  1
\C8;\c8421504;\FMS PGothic|b0|i0|c128;\H2.142857;\W1.000000;①
 73
     1
 44
1.0
  0
MTEXT
  5
1A6
330
70
100
AcDbEntity
  8
sunpo
100
AcDbMText
 10
277.9006042480469
 20
138.3446044921875
 30
0.0
 40
0.2
 41
0.0
 46
0.0
 71
     7
 72
     1
  1
\C8;\c8421504;\FMS PGothic|b0|i0|c128;\H2.142857;\W1.000000;①
 73
     1
 44
1.0
  0
MTEXT
  5
1A7
330
70
100
AcDbEntity
  8
sunpo
100
AcDbMText
 10
241.3716125488281
 20
123.3606948852539
 30
0.0
 40
0.2
 41
0.0
 46
0.0
 71
     7
 72
     1
  1
\C8;\c8421504;\FMS PGothic|b0|i0|c128;\H2.142857;\W1.000000;②
 73
     1
 44
1.0
  0
LWPOLYLINE
  5
1A8
330
70
100
AcDbEntity
  8
sunpo
 62
     8
420
  8421504
370
    15
100
AcDbPolyline
 90
        3
 70
     0
 43
0.0
 10
236.8868356321291
 20
126.8296387641749
 10
238.7273739283155
 20
124.0546931114368
 10
241.2738240416093
 20
124.0546931114368
  0
LWPOLYLINE
  5
1A9
330
70
100
AcDbEntity
  8
sunpo
 62
     8
420
  8421504
370
    15
100
AcDbPolyline
 90
        4
 70
     0
 43
0.0
 10
183.0929135819169
 20
126.2081582501105
 10
185.8378967676053
 20
123.4631750644203
 10
211.3569737758571
 20
123.4631750644203
 10
214.1019569615455
 20
126.2081582501105
  0
MTEXT
  5
1AA
330
70
100
AcDbEntity
  8
sunpo
100
AcDbMText
 10
196.5978240966797
 20
120.70361328125
 30
0.0
 40
0.2
 41
0.0
 46
0.0
 71
     7
 72
     1
  1
\C8;\c8421504;\FMS PGothic|b0|i0|c128;\H2.142857;\W1.000000;②
 73
     1
 44
1.0
  0
LINE
  5
1AB
330
70
100
AcDbEntity
  8
sunpo
 62
     8
420
  8421504
370
    15
100
AcDbLine
 10
220.9941285971563
 20
129.686781621318
 30
0.0
 11
220.9941285971563
 21
120.9663889796593
 31
0.0
  0
LWPOLYLINE
  5
1AD
330
70
100
AcDbEntity
  8
waku
 62
    18
420
        0
370
    13
100
AcDbPolyline
 90
        4
 70
     1
 43
0.0
 10
0.0
 20
43.92857142857247
 10
300.0
 20
43.92857142857247
 10
300.0
 20
256.0714285714285
 10
0.0
 20
256.0714285714285
  0
LWPOLYLINE
  5
1AE
330
70
100
AcDbEntity
  8
waku
 62
    18
420
        0
370
    13
100
AcDbPolyline
 90
        4
 70
     1
 43
0.0
 10
10.71428571428623
 20
54.64285714285688
 10
289.2857142857138
 20
54.64285714285688
 10
289.2857142857138
 20
245.3571428571431
 10
10.71428571428623
 20
245.3571428571431
  0
MTEXT
  5
1AF
330
70
100
AcDbEntity
  8
waku
100
AcDbMText
 10
242.1308898925781
 20
57.02164459228516
 30
0.0
 40
0.2
 41
0.0
 46
0.0
 71
     7
 72
     1
  1
\C18;\c0;\FMS PGothic|b0|i0|c128;\H2.920196;\W1.089750;吉岡電気工業株式会社
 73
     1
 44
1.0
  0
LWPOLYLINE
  5
1B0
330
70
100
AcDbEntity
  8
waku
 62
    18
420
        0
370
    13
100
AcDbPolyline
 90
        5
 70
     0
 43
0.0
 10
233.8928571428569
 20
54.64285714285688
 10
289.2857142857138
 20
54.64285714285688
 10
289.2857142857138
 20
60.87433792589763
 10
233.8928571428569
 20
60.87433792589763
 10
233.8928571428569
 20
54.64285714285688
  0
LINE
  5
1B1
330
70
100
AcDbEntity
  8
waku
 62
    18
420
        0
370
    13
100
AcDbLine
 10
240.8085803620415
 20
60.87433792589763
 30
0.0
 11
240.8085803620415
 21
54.64548211451074
 31
0.0
  0
MTEXT
  5
1B2
330
70
100
AcDbEntity
  8
waku
100
AcDbMText
 10
269.1266784667969
 20
53.10512924194336
 30
0.0
 40
0.2
 41
0.0
 46
0.0
 71
     7
 72
     1
  1
\C18;\c0;\FKozGoPr6N-Regular|b0|i0|c128;\H1.429600;\W1.000000;MWS04mb_1510_1
 73
     1
 44
1.0
  0
SPLINE
  5
1B3
330
70
100
AcDbEntity
  8
waku
 62
    18
420
        0
370
    13
100
AcDbSpline
210
0.0
220
0.0
230
1.0
 70
     9
 71
     3
 72
    17
 73
    13
 74
     0
 42
0.0000000001
 43
0.0000000001
 40
0.0
 40
0.0
 40
0.0
 40
0.0
 40
1.0
 40
1.0
 40
1.0
 40
2.0
 40
2.0
 40
2.0
 40
3.0
 40
3.0
 40
3.0
 40
4.0
 40
4.0
 40
4.0
 40
4.0
 10
234.8462602844902
 20
57.81627960377409
 30
0.0
 10
234.8462602844902
 20
56.30318536678714
 30
0.0
 10
236.0773719585905
 20
55.07173712675831
 30
0.0
 10
237.5911392269936
 20
55.07173712675831
 30
0.0
 10
239.1045699605765
 20
55.07173712675831
 30
0.0
 10
240.3356816346768
 20
56.30318536678714
 30
0.0
 10
240.3356816346768
 20
57.81627960377409
 30
0.0
 10
240.3356816346768
 20
59.33004691041787
 30
0.0
 10
239.1045699605765
 20
60.5611586156192
 30
0.0
 10
237.5911392269936
 20
60.5611586156192
 30
0.0
 10
236.0773719585905
 20
60.5611586156192
 30
0.0
 10
234.8462602844902
 20
59.33004691041787
 30
0.0
 10
234.8462602844902
 20
57.81627960377409
 30
0.0
  0
SPLINE
  5
1B4
330
70
100
AcDbEntity
  8
waku
 62
    18
420
        0
370
    13
100
AcDbSpline
210
0.0
220
0.0
230
1.0
 70
     9
 71
     3
 72
    17
 73
    13
 74
     0
 42
0.0000000001
 43
0.0000000001
 40
0.0
 40
0.0
 40
0.0
 40
0.0
 40
1.0
 40
1.0
 40
1.0
 40
2.0
 40
2.0
 40
2.0
 40
3.0
 40
3.0
 40
3.0
 40
4.0
 40
4.0
 40
4.0
 40
4.0
 10
235.4033263700348
 20
57.81627960377409
 30
0.0
 10
235.4033263700348
 20
59.02275695961725
 30
0.0
 10
236.3846619016294
 20
60.00442905082855
 30
0.0
 10
237.5911392269936
 20
60.00442905082855
 30
0.0
 10
238.7975828988765
 20
60.00442905082855
 30
0.0
 10
239.7786155491322
 20
59.02275695961725
 30
0.0
 10
239.7786155491322
 20
57.81627960377409
 30
0.0
 10
239.7786155491322
 20
56.61013878276026
 30
0.0
 10
238.7975828988765
 20
55.62880322637465
 30
0.0
 10
237.5911392269936
 20
55.62880322637465
 30
0.0
 10
236.3846619016294
 20
55.62880322637465
 30
0.0
 10
235.4033263700348
 20
56.61013878276026
 30
0.0
 10
235.4033263700348
 20
57.81627960377409
 30
0.0
  0
SPLINE
  5
1B5
330
70
100
AcDbEntity
  8
waku
 62
    18
420
        0
370
     0
100
AcDbSpline
210
0.0
220
0.0
230
1.0
 70
     9
 71
     3
 72
    17
 73
    13
 74
     0
 42
0.0000000001
 43
0.0000000001
 40
0.0
 40
0.0
 40
0.0
 40
0.0
 40
1.0
 40
1.0
 40
1.0
 40
2.0
 40
2.0
 40
2.0
 40
3.0
 40
3.0
 40
3.0
 40
4.0
 40
4.0
 40
4.0
 40
4.0
 10
235.4033263700348
 20
57.81627960377409
 30
0.0
 10
235.4033263700348
 20
59.02275695961725
 30
0.0
 10
236.3846619016294
 20
60.00442905082855
 30
0.0
 10
237.5911392269936
 20
60.00442905082855
 30
0.0
 10
238.7975828988765
 20
60.00442905082855
 30
0.0
 10
239.7786155491322
 20
59.02275695961725
 30
0.0
 10
239.7786155491322
 20
57.81627960377409
 30
0.0
 10
239.7786155491322
 20
56.61013878276026
 30
0.0
 10
238.7975828988765
 20
55.62880322637465
 30
0.0
 10
237.5911392269936
 20
55.62880322637465
 30
0.0
 10
236.3846619016294
 20
55.62880322637465
 30
0.0
 10
235.4033263700348
 20
56.61013878276026
 30
0.0
 10
235.4033263700348
 20
57.81627960377409
 30
0.0
  0
SPLINE
  5
1B6
330
70
100
AcDbEntity
  8
waku
 62
    18
420
        0
370
     0
100
AcDbSpline
210
0.0
220
0.0
230
1.0
 70
     9
 71
     3
 72
    17
 73
    13
 74
     0
 42
0.0000000001
 43
0.0000000001
 40
0.0
 40
0.0
 40
0.0
 40
0.0
 40
1.0
 40
1.0
 40
1.0
 40
2.0
 40
2.0
 40
2.0
 40
3.0
 40
3.0
 40
3.0
 40
4.0
 40
4.0
 40
4.0
 40
4.0
 10
234.8462602844902
 20
57.81627960377409
 30
0.0
 10
234.8462602844902
 20
56.30318536678714
 30
0.0
 10
236.0773719585905
 20
55.07173712675831
 30
0.0
 10
237.5911392269936
 20
55.07173712675831
 30
0.0
 10
239.1045699605765
 20
55.07173712675831
 30
0.0
 10
240.3356816346768
 20
56.30318536678714
 30
0.0
 10
240.3356816346768
 20
57.81627960377409
 30
0.0
 10
240.3356816346768
 20
59.33004691041787
 30
0.0
 10
239.1045699605765
 20
60.5611586156192
 30
0.0
 10
237.5911392269936
 20
60.5611586156192
 30
0.0
 10
236.0773719585905
 20
60.5611586156192
 30
0.0
 10
234.8462602844902
 20
59.33004691041787
 30
0.0
 10
234.8462602844902
 20
57.81627960377409
 30
0.0
  0
SPLINE
  5
1B7
330
70
100
AcDbEntity
  8
waku
100
AcDbSpline
210
0.0
220
0.0
230
1.0
 70
     9
 71
     3
 72
    20
 73
    16
 74
     0
 42
0.0000000001
 43
0.0000000001
 40
0.0
 40
0.0
 40
0.0
 40
0.0
 40
1.0
 40
1.0
 40
1.0
 40
2.0
 40
2.0
 40
2.0
 40
3.0
 40
3.0
 40
3.0
 40
4.0
 40
4.0
 40
4.0
 40
5.0
 40
5.0
 40
5.0
 40
5.0
 10
234.8462602844902
 20
57.81627960377409
 30
0.0
 10
234.8462602844902
 20
56.30318536678714
 30
0.0
 10
236.0773719585905
 20
55.07173712675831
 30
0.0
 10
237.5911392269936
 20
55.07173712675831
 30
0.0
 10
239.1045699605765
 20
55.07173712675831
 30
0.0
 10
240.3356816346768
 20
56.30318536678714
 30
0.0
 10
240.3356816346768
 20
57.81627960377409
 30
0.0
 10
240.3356816346768
 20
59.33004691041787
 30
0.0
 10
239.1045699605765
 20
60.5611586156192
 30
0.0
 10
237.5911392269936
 20
60.5611586156192
 30
0.0
 10
236.0773719585905
 20
60.5611586156192
 30
0.0
 10
234.8462602844902
 20
59.33004691041787
 30
0.0
 10
234.8462602844902
 20
57.81627960377409
 30
0.0
 10
234.8462602844902
 20
57.81627960377409
 30
0.0
 10
234.8462602844902
 20
57.81627960377409
 30
0.0
 10
234.8462602844902
 20
57.81627960377409
 30
0.0
  0
SPLINE
  5
1B8
330
70
100
AcDbEntity
  8
waku
100
AcDbSpline
210
0.0
220
0.0
230
1.0
 70
     9
 71
     3
 72
    17
 73
    13
 74
     0
 42
0.0000000001
 43
0.0000000001
 40
0.0
 40
0.0
 40
0.0
 40
0.0
 40
1.0
 40
1.0
 40
1.0
 40
2.0
 40
2.0
 40
2.0
 40
3.0
 40
3.0
 40
3.0
 40
4.0
 40
4.0
 40
4.0
 40
4.0
 10
235.4033263700348
 20
57.81627960377409
 30
0.0
 10
235.4033263700348
 20
59.02275695961725
 30
0.0
 10
236.3846619016294
 20
60.00442905082855
 30
0.0
 10
237.5911392269936
 20
60.00442905082855
 30
0.0
 10
238.7975828988765
 20
60.00442905082855
 30
0.0
 10
239.7786155491322
 20
59.02275695961725
 30
0.0
 10
239.7786155491322
 20
57.81627960377409
 30
0.0
 10
239.7786155491322
 20
56.61013878276026
 30
0.0
 10
238.7975828988765
 20
55.62880322637465
 30
0.0
 10
237.5911392269936
 20
55.62880322637465
 30
0.0
 10
236.3846619016294
 20
55.62880322637465
 30
0.0
 10
235.4033263700348
 20
56.61013878276026
 30
0.0
 10
235.4033263700348
 20
57.81627960377409
 30
0.0
  0
HATCH
  5
1B9
330
70
100
AcDbEntity
  8
waku
 62
    18
420
        0
440
 33554687
100
AcDbHatch
 10
0.0
 20
0.0
 30
0.0
210
0.0
220
0.0
230
1.0
  2
SOLID
 70
     1
 71
     1
 91
        2
 92
        1
 93
        1
 72
     4
 94
        3
 73
     0
 74
     0
 95
       20
 96
       16
 40
0.0
 40
0.0
 40
0.0
 40
0.0
 40
1.0
 40
1.0
 40
1.0
 40
2.0
 40
2.0
 40
2.0
 40
3.0
 40
3.0
 40
3.0
 40
4.0
 40
4.0
 40
4.0
 40
5.0
 40
5.0
 40
5.0
 40
5.0
 10
234.8462602844902
 20
57.81627960377409
 10
234.8462602844902
 20
56.30318536678714
 10
236.0773719585905
 20
55.07173712675831
 10
237.5911392269936
 20
55.07173712675831
 10
239.1045699605765
 20
55.07173712675831
 10
240.3356816346768
 20
56.30318536678714
 10
240.3356816346768
 20
57.81627960377409
 10
240.3356816346768
 20
59.33004691041787
 10
239.1045699605765
 20
60.5611586156192
 10
237.5911392269936
 20
60.5611586156192
 10
236.0773719585905
 20
60.5611586156192
 10
234.8462602844902
 20
59.33004691041787
 10
234.8462602844902
 20
57.81627960377409
 10
234.8462602844902
 20
57.81627960377409
 10
234.8462602844902
 20
57.81627960377409
 10
234.8462602844902
 20
57.81627960377409
 97
        0
 97
        1
330
1B7
 92
        1
 93
        2
 72
     4
 94
        3
 73
     0
 74
     0
 95
       17
 96
       13
 40
0.0
 40
0.0
 40
0.0
 40
0.0
 40
1.0
 40
1.0
 40
1.0
 40
2.0
 40
2.0
 40
2.0
 40
3.0
 40
3.0
 40
3.0
 40
4.0
 40
4.0
 40
4.0
 40
4.0
 10
235.4033263700348
 20
57.81627960377409
 10
235.4033263700348
 20
59.02275695961725
 10
236.3846619016294
 20
60.00442905082855
 10
237.5911392269936
 20
60.00442905082855
 10
238.7975828988765
 20
60.00442905082855
 10
239.7786155491322
 20
59.02275695961725
 10
239.7786155491322
 20
57.81627960377409
 10
239.7786155491322
 20
56.61013878276026
 10
238.7975828988765
 20
55.62880322637465
 10
237.5911392269936
 20
55.62880322637465
 10
236.3846619016294
 20
55.62880322637465
 10
235.4033263700348
 20
56.61013878276026
 10
235.4033263700348
 20
57.81627960377409
 97
        0
 72
     1
 10
235.4033263700348
 20
57.81627960377409
 11
235.4033263700348
 21
57.81627960377409
 97
        0
 75
     2
 76
     1
 98
        1
 10
0.0
 20
0.0
450
        0
451
        0
460
0.0
461
0.0
452
        0
462
0.0
453
        0
470

  0
LWPOLYLINE
  5
1BA
330
70
100
AcDbEntity
  8
waku
 62
    18
420
        0
370
    13
100
AcDbPolyline
 90
        5
 70
     0
 43
0.0
 10
237.0377077174926
 20
57.80510664750727
 10
237.0377077174926
 20
55.55452998999135
 10
236.4806416319479
 20
55.55452998999135
 10
236.4806416319479
 20
57.80510664750727
 10
237.0377077174926
 20
57.80510664750727
  0
LWPOLYLINE
  5
1BB
330
70
100
AcDbEntity
  8
waku
 62
    18
420
        0
370
     0
100
AcDbPolyline
 90
        4
 70
     1
 43
0.0
 10
237.0377077174926
 20
57.80510664750727
 10
237.0377077174926
 20
55.55452998999135
 10
236.4806416319479
 20
55.55452998999135
 10
236.4806416319479
 20
57.80510664750727
  0
LWPOLYLINE
  5
1BC
330
70
100
AcDbEntity
  8
waku
100
AcDbPolyline
 90
        4
 70
     1
 43
0.0
 10
237.0377077174926
 20
57.80510664750727
 10
237.0377077174926
 20
55.55452998999135
 10
236.4806416319479
 20
55.55452998999135
 10
236.4806416319479
 20
57.80510664750727
  0
HATCH
  5
1BD
330
70
100
AcDbEntity
  8
waku
 62
    18
420
        0
440
 33554687
100
AcDbHatch
 10
0.0
 20
0.0
 30
0.0
210
0.0
220
0.0
230
1.0
  2
SOLID
 70
     1
 71
     1
 91
        1
 92
        1
 93
        4
 72
     1
 10
237.0377077174926
 20
57.80510664750727
 11
237.0377077174926
 21
55.55452998999135
 72
     1
 10
237.0377077174926
 20
55.55452998999135
 11
236.4806416319479
 21
55.55452998999135
 72
     1
 10
236.4806416319479
 20
55.55452998999135
 11
236.4806416319479
 21
57.80510664750727
 72
     1
 10
236.4806416319479
 20
57.80510664750727
 11
237.0377077174926
 21
57.80510664750727
 97
        1
330
1BC
 75
     2
 76
     1
 98
        1
 10
0.0
 20
0.0
450
        0
451
        0
460
0.0
461
0.0
452
        0
462
0.0
453
        0
470

  0
LWPOLYLINE
  5
1BE
330
70
100
AcDbEntity
  8
waku
 62
    18
420
        0
370
    13
100
AcDbPolyline
 90
        5
 70
     0
 43
0.0
 10
238.8183134437131
 20
60.07738980138492
 10
238.8183134437131
 20
55.55914051712534
 10
238.2615838929887
 20
55.55914051712534
 10
238.2615838929887
 20
60.07738980138492
 10
238.8183134437131
 20
60.07738980138492
  0
LWPOLYLINE
  5
1BF
330
70
100
AcDbEntity
  8
waku
 62
    18
420
        0
370
     0
100
AcDbPolyline
 90
        4
 70
     1
 43
0.0
 10
238.8183134437131
 20
60.07738980138492
 10
238.8183134437131
 20
55.55914051712534
 10
238.2615838929887
 20
55.55914051712534
 10
238.2615838929887
 20
60.07738980138492
  0
LWPOLYLINE
  5
1C0
330
70
100
AcDbEntity
  8
waku
100
AcDbPolyline
 90
        4
 70
     1
 43
0.0
 10
238.8183134437131
 20
60.07738980138492
 10
238.8183134437131
 20
55.55914051712534
 10
238.2615838929887
 20
55.55914051712534
 10
238.2615838929887
 20
60.07738980138492
  0
HATCH
  5
1C1
330
70
100
AcDbEntity
  8
waku
 62
    18
420
        0
440
 33554687
100
AcDbHatch
 10
0.0
 20
0.0
 30
0.0
210
0.0
220
0.0
230
1.0
  2
SOLID
 70
     1
 71
     1
 91
        1
 92
        1
 93
        4
 72
     1
 10
238.8183134437131
 20
60.07738980138492
 11
238.8183134437131
 21
55.55914051712534
 72
     1
 10
238.8183134437131
 20
55.55914051712534
 11
238.2615838929887
 21
55.55914051712534
 72
     1
 10
238.2615838929887
 20
55.55914051712534
 11
238.2615838929887
 21
60.07738980138492
 72
     1
 10
238.2615838929887
 20
60.07738980138492
 11
238.8183134437131
 21
60.07738980138492
 97
        1
330
1C0
 75
     2
 76
     1
 98
        1
 10
0.0
 20
0.0
450
        0
451
        0
460
0.0
461
0.0
452
        0
462
0.0
453
        0
470

  0
LWPOLYLINE
  5
1C2
330
70
100
AcDbEntity
  8
waku
 62
    18
420
        0
370
    13
100
AcDbPolyline
 90
        5
 70
     0
 43
0.0
 10
236.2180435128448
 20
59.82071468861068
 10
237.0459191670707
 20
57.9004133105991
 10
236.5299439829014
 20
57.67793013627488
 10
235.7020683286755
 20
59.59819786080515
 10
236.2180435128448
 20
59.82071468861068
  0
LWPOLYLINE
  5
1C3
330
70
100
AcDbEntity
  8
waku
 62
    18
420
        0
370
     0
100
AcDbPolyline
 90
        4
 70
     1
 43
0.0
 10
236.2180435128448
 20
59.82071468861068
 10
237.0459191670707
 20
57.9004133105991
 10
236.5299439828996
 20
57.67793013627488
 10
235.7020683286755
 20
59.59819786080515
  0
LWPOLYLINE
  5
1C4
330
70
100
AcDbEntity
  8
waku
100
AcDbPolyline
 90
        4
 70
     1
 43
0.0
 10
236.2180435128448
 20
59.82071468861068
 10
237.0459191670707
 20
57.9004133105991
 10
236.5299439828996
 20
57.67793013627488
 10
235.7020683286755
 20
59.59819786080515
  0
HATCH
  5
1C5
330
70
100
AcDbEntity
  8
waku
 62
    18
420
        0
440
 33554687
100
AcDbHatch
 10
0.0
 20
0.0
 30
0.0
210
0.0
220
0.0
230
1.0
  2
SOLID
 70
     1
 71
     1
 91
        1
 92
        1
 93
        4
 72
     1
 10
236.2180435128448
 20
59.82071468861068
 11
237.0459191670707
 21
57.9004133105991
 72
     1
 10
237.0459191670707
 20
57.9004133105991
 11
236.5299439828996
 21
57.67793013627488
 72
     1
 10
236.5299439828996
 20
57.67793013627488
 11
235.7020683286755
 21
59.59819786080515
 72
     1
 10
235.7020683286755
 20
59.59819786080515
 11
236.2180435128448
 21
59.82071468861068
 97
        1
330
1C4
 75
     2
 76
     1
 98
        1
 10
0.0
 20
0.0
450
        0
451
        0
460
0.0
461
0.0
452
        0
462
0.0
453
        0
470

  0
LWPOLYLINE
  5
1C6
330
70
100
AcDbEntity
  8
waku
 62
    18
420
        0
370
    13
100
AcDbPolyline
 90
        5
 70
     0
 43
0.0
 10
237.6654124614997
 20
60.38992969549326
 10
238.1679262529196
 20
60.15035055194312
 10
236.9913725431616
 20
57.6841560305802
 10
236.488853081526
 20
57.92407170895604
 10
237.6654124615015
 20
60.38992969549326
  0
LWPOLYLINE
  5
1C7
330
70
100
AcDbEntity
  8
waku
 62
    18
420
        0
370
     0
100
AcDbPolyline
 90
        4
 70
     1
 43
0.0
 10
237.6654124614997
 20
60.38992969549326
 10
238.1679262529196
 20
60.15035055194312
 10
236.9913725431616
 20
57.6841560305802
 10
236.488853081526
 20
57.92407170895604
  0
LWPOLYLINE
  5
1C8
330
70
100
AcDbEntity
  8
waku
100
AcDbPolyline
 90
        4
 70
     1
 43
0.0
 10
237.6654124614997
 20
60.38992969549326
 10
238.1679262529196
 20
60.15035055194312
 10
236.9913725431616
 20
57.6841560305802
 10
236.488853081526
 20
57.92407170895604
  0
HATCH
  5
1C9
330
70
100
AcDbEntity
  8
waku
 62
    18
420
        0
440
 33554687
100
AcDbHatch
 10
0.0
 20
0.0
 30
0.0
210
0.0
220
0.0
230
1.0
  2
SOLID
 70
     1
 71
     1
 91
        1
 92
        1
 93
        4
 72
     1
 10
237.6654124614997
 20
60.38992969549326
 11
238.1679262529196
 21
60.15035055194312
 72
     1
 10
238.1679262529196
 20
60.15035055194312
 11
236.9913725431616
 21
57.6841560305802
 72
     1
 10
236.9913725431616
 20
57.6841560305802
 11
236.488853081526
 21
57.92407170895604
 72
     1
 10
236.488853081526
 20
57.92407170895604
 11
237.6654124614997
 21
60.38992969549326
 97
        1
330
1C8
 75
     2
 76
     1
 98
        1
 10
0.0
 20
0.0
450
        0
451
        0
460
0.0
461
0.0
452
        0
462
0.0
453
        0
470

  0
ENDSEC
  0
SECTION
  2
OBJECTS
  0
DICTIONARY
  5
C
330
0
100
AcDbDictionary
281
     1
  3
ACAD_COLOR
350
63
  3
ACAD_DETAILVIEWSTYLE
350
6A
  3
ACAD_GROUP
350
D
  3
ACAD_LAYOUT
350
62
  3
ACAD_MATERIAL
350
10
  3
ACAD_MLEADERSTYLE
350
66
  3
ACAD_MLINESTYLE
350
5F
  3
ACAD_PLOTSETTINGS
350
61
  3
ACAD_PLOTSTYLENAME
350
E
  3
ACAD_SCALELIST
350
42
  3
ACAD_SECTIONVIEWSTYLE
350
68
  3
ACAD_TABLESTYLE
350
64
  3
ACAD_VISUALSTYLE
350
29
  3
ACDB_RECOMPOSE_DATA
350
1D2
  3
AcDbVariableDictionary
350
1CA
  0
DICTIONARY
  5
63
102
{ACAD_REACTORS
330
C
102
}
330
C
100
AcDbDictionary
281
     1
  0
DICTIONARY
  5
6A
102
{ACAD_REACTORS
330
C
102
}
330
C
100
AcDbDictionary
281
     1
  3
Imperial24
350
6B
  0
DICTIONARY
  5
D
102
{ACAD_REACTORS
330
C
102
}
330
C
100
AcDbDictionary
281
     1
  0
DICTIONARY
  5
62
102
{ACAD_REACTORS
330
C
102
}
330
C
100
AcDbDictionary
281
     1
  3
Layout1
350
6F
  3
Layout2
350
77
  3
Model
350
73
  0
DICTIONARY
  5
10
102
{ACAD_REACTORS
330
C
102
}
330
C
100
AcDbDictionary
281
     1
  3
ByBlock
350
19
  3
ByLayer
350
11
  3
Global
350
21
  0
DICTIONARY
  5
66
102
{ACAD_REACTORS
330
C
102
}
330
C
100
AcDbDictionary
281
     1
  3
Standard
350
67
  0
DICTIONARY
  5
5F
102
{ACAD_REACTORS
330
C
102
}
330
C
100
AcDbDictionary
281
     1
  3
Standard
350
60
  0
DICTIONARY
  5
61
102
{ACAD_REACTORS
330
C
102
}
330
C
100
AcDbDictionary
281
     1
  0
ACDBDICTIONARYWDFLT
  5
E
102
{ACAD_REACTORS
330
C
102
}
330
C
100
AcDbDictionary
281
     1
  3
Normal
350
F
100
AcDbDictionaryWithDefault
340
F
  0
DICTIONARY
  5
42
102
{ACAD_REACTORS
330
C
102
}
330
C
100
AcDbDictionary
281
     1
  3
A0
350
43
  3
A1
350
44
  3
A2
350
45
  3
A3
350
46
  3
A4
350
47
  3
A5
350
48
  3
A6
350
49
  3
A7
350
4A
  3
A8
350
4B
  3
A9
350
4C
  3
B0
350
4D
  3
B1
350
4E
  3
B2
350
4F
  3
B3
350
50
  3
B4
350
51
  3
B5
350
52
  3
B6
350
53
  0
DICTIONARY
  5
68
102
{ACAD_REACTORS
330
C
102
}
330
C
100
AcDbDictionary
281
     1
  3
Imperial24
350
69
  0
DICTIONARY
  5
64
102
{ACAD_REACTORS
330
C
102
}
330
C
100
AcDbDictionary
281
     1
  3
Standard
350
65
  0
DICTIONARY
  5
29
102
{ACAD_REACTORS
330
C
102
}
330
C
100
AcDbDictionary
281
     1
  3
2dWireframe
350
2F
  3
Basic
350
2E
  3
Brighten
350
35
  3
ColorChange
350
39
  3
Conceptual
350
32
  3
Dim
350
34
  3
EdgeColorOff
350
41
  3
Facepattern
350
38
  3
Flat
350
2A
  3
FlatWithEdges
350
2B
  3
Gouraud
350
2C
  3
GouraudWithEdges
350
2D
  3
Hidden
350
31
  3
JitterOff
350
3F
  3
Linepattern
350
37
  3
OverhangOff
350
40
  3
Realistic
350
33
  3
Shaded
350
3E
  3
Shaded with edges
350
3D
  3
Shades of Gray
350
3A
  3
Sketchy
350
3B
  3
Thicken
350
36
  3
Wireframe
350
30
  3
X-Ray
350
3C
  0
XRECORD
  5
1D2
102
{ACAD_REACTORS
330
C
102
}
330
C
100
AcDbXrecord
280
     1
 90
        1
330
65
  0
DICTIONARY
  5
1CA
102
{ACAD_REACTORS
330
C
102
}
330
C
100
AcDbDictionary
281
     1
  3
CANNOSCALE
350
1CF
  3
CMLEADERSTYLE
350
1CC
  3
CTABLESTYLE
350
1CB
  3
CVIEWDETAILSTYLE
350
1CD
  3
CVIEWSECTIONSTYLE
350
1CE
  0
ACDBDETAILVIEWSTYLE
  5
6B
102
{ACAD_REACTORS
330
6A
102
}
330
6A
100
AcDbModelDocViewStyle
 70
     0
  3
Imperial24
290
     1
300
Imperial24
 90
        0
100
AcDbDetailViewStyle
 70
     0
 71
     0
 90
        3
 71
     1
340
55
 62
   256
 40
0.24
340
0
 62
   256
 40
0.24
300

 40
0.36
280
     3
 71
     2
340
5D
 90
       25
 62
   256
 71
     3
340
55
 62
   256
 40
0.24
 90
        1
 40
0.75
 90
        1
300
%<\AcVar ViewType \f "%tc1">% %<\AcVar ViewDetailId>%\PSCALE %<\AcVar ViewScale \f "%sn">%
 71
     4
340
5D
 90
       25
 62
   256
340
5D
 90
       25
 62
   256
280
     0
  0
LAYOUT
  5
6F
102
{ACAD_REACTORS
330
62
102
}
330
62
100
AcDbPlotSettings
  1

  2

  4

  6

 40
0.0
 41
0.0
 42
0.0
 43
0.0
 44
0.0
 45
0.0
 46
0.0
 47
0.0
 48
0.0
 49
0.0
140
0.0
141
0.0
142
1.0
143
1.0
 70
   688
 72
     0
 73
     0
 74
     5
  7

 75
    16
147
1.0
 76
     0
 77
     2
 78
   300
148
0.0
149
0.0
100
AcDbLayout
  1
Layout1
 70
     1
 71
     1
 10
0.0
 20
0.0
 11
12.0
 21
9.0
 12
0.0
 22
0.0
 32
0.0
 14
0.0
 24
0.0
 34
0.0
 15
0.0
 25
0.0
 35
0.0
146
0.0
 13
0.0
 23
0.0
 33
0.0
 16
1.0
 26
0.0
 36
0.0
 17
0.0
 27
1.0
 37
0.0
 76
     0
330
6C
  0
LAYOUT
  5
77
102
{ACAD_REACTORS
330
62
102
}
330
62
100
AcDbPlotSettings
  1

  2

  4

  6

 40
0.0
 41
0.0
 42
0.0
 43
0.0
 44
0.0
 45
0.0
 46
0.0
 47
0.0
 48
0.0
 49
0.0
140
0.0
141
0.0
142
1.0
143
1.0
 70
   688
 72
     0
 73
     0
 74
     5
  7

 75
    16
147
1.0
 76
     0
 77
     2
 78
   300
148
0.0
149
0.0
100
AcDbLayout
  1
Layout2
 70
     1
 71
     2
 10
0.0
 20
0.0
 11
12.0
 21
9.0
 12
0.0
 22
0.0
 32
0.0
 14
0.0
 24
0.0
 34
0.0
 15
0.0
 25
0.0
 35
0.0
146
0.0
 13
0.0
 23
0.0
 33
0.0
 16
1.0
 26
0.0
 36
0.0
 17
0.0
 27
1.0
 37
0.0
 76
     0
330
74
  0
LAYOUT
  5
73
102
{ACAD_REACTORS
330
62
102
}
330
62
100
AcDbPlotSettings
  1

  2

  4

  6

 40
0.0
 41
0.0
 42
0.0
 43
0.0
 44
0.0
 45
0.0
 46
0.0
 47
0.0
 48
0.0
 49
0.0
140
0.0
141
0.0
142
1.0
143
1.0
 70
  1712
 72
     0
 73
     0
 74
     0
  7

 75
     0
147
1.0
 76
     0
 77
     2
 78
   300
148
0.0
149
0.0
100
AcDbLayout
  1
Model
 70
     1
 71
     0
 10
0.0
 20
0.0
 11
12.0
 21
9.0
 12
0.0
 22
0.0
 32
0.0
 14
0.0
 24
0.0
 34
0.0
 15
0.0
 25
0.0
 35
0.0
146
0.0
 13
0.0
 23
0.0
 33
0.0
 16
1.0
 26
0.0
 36
0.0
 17
0.0
 27
1.0
 37
0.0
 76
     0
330
70
  0
MATERIAL
  5
19
102
{ACAD_XDICTIONARY
360
1A
102
}
102
{ACAD_REACTORS
330
10
102
}
330
10
100
AcDbMaterial
  1
ByBlock
 72
     0
 43
0.0208333333333333
 43
0.0
 43
0.0
 43
0.0
 43
0.0
 43
0.0208333333333333
 43
0.0
 43
0.0
 43
0.0
 43
0.0
 43
1.0
 43
0.0
 43
0.0
 43
0.0
 43
0.0
 43
1.0
 77
     0
 47
0.0208333333333333
 47
0.0
 47
0.0
 47
0.0
 47
0.0
 47
0.0208333333333333
 47
0.0
 47
0.0
 47
0.0
 47
0.0
 47
1.0
 47
0.0
 47
0.0
 47
0.0
 47
0.0
 47
1.0
171
     0
 49
0.0208333333333333
 49
0.0
 49
0.0
 49
0.0
 49
0.0
 49
0.0208333333333333
 49
0.0
 49
0.0
 49
0.0
 49
0.0
 49
1.0
 49
0.0
 49
0.0
 49
0.0
 49
0.0
 49
1.0
175
     0
142
0.0208333333333333
142
0.0
142
0.0
142
0.0
142
0.0
142
0.0208333333333333
142
0.0
142
0.0
142
0.0
142
0.0
142
1.0
142
0.0
142
0.0
142
0.0
142
0.0
142
1.0
179
     0
144
0.0208333333333333
144
0.0
144
0.0
144
0.0
144
0.0
144
0.0208333333333333
144
0.0
144
0.0
144
0.0
144
0.0
144
1.0
144
0.0
144
0.0
144
0.0
144
0.0
144
1.0
147
0.0208333333333333
147
0.0
147
0.0
147
0.0
147
0.0
147
0.0208333333333333
147
0.0
147
0.0
147
0.0
147
0.0
147
1.0
147
0.0
147
0.0
147
0.0
147
0.0
147
1.0
  0
MATERIAL
  5
11
102
{ACAD_XDICTIONARY
360
12
102
}
102
{ACAD_REACTORS
330
10
102
}
330
10
100
AcDbMaterial
  1
ByLayer
 72
     0
 43
0.0208333333333333
 43
0.0
 43
0.0
 43
0.0
 43
0.0
 43
0.0208333333333333
 43
0.0
 43
0.0
 43
0.0
 43
0.0
 43
1.0
 43
0.0
 43
0.0
 43
0.0
 43
0.0
 43
1.0
 77
     0
 47
0.0208333333333333
 47
0.0
 47
0.0
 47
0.0
 47
0.0
 47
0.0208333333333333
 47
0.0
 47
0.0
 47
0.0
 47
0.0
 47
1.0
 47
0.0
 47
0.0
 47
0.0
 47
0.0
 47
1.0
171
     0
 49
0.0208333333333333
 49
0.0
 49
0.0
 49
0.0
 49
0.0
 49
0.0208333333333333
 49
0.0
 49
0.0
 49
0.0
 49
0.0
 49
1.0
 49
0.0
 49
0.0
 49
0.0
 49
0.0
 49
1.0
175
     0
142
0.0208333333333333
142
0.0
142
0.0
142
0.0
142
0.0
142
0.0208333333333333
142
0.0
142
0.0
142
0.0
142
0.0
142
1.0
142
0.0
142
0.0
142
0.0
142
0.0
142
1.0
179
     0
144
0.0208333333333333
144
0.0
144
0.0
144
0.0
144
0.0
144
0.0208333333333333
144
0.0
144
0.0
144
0.0
144
0.0
144
1.0
144
0.0
144
0.0
144
0.0
144
0.0
144
1.0
147
0.0208333333333333
147
0.0
147
0.0
147
0.0
147
0.0
147
0.0208333333333333
147
0.0
147
0.0
147
0.0
147
0.0
147
1.0
147
0.0
147
0.0
147
0.0
147
0.0
147
1.0
  0
MATERIAL
  5
21
102
{ACAD_XDICTIONARY
360
22
102
}
102
{ACAD_REACTORS
330
10
102
}
330
10
100
AcDbMaterial
  1
Global
 72
     0
 43
0.0208333333333333
 43
0.0
 43
0.0
 43
0.0
 43
0.0
 43
0.0208333333333333
 43
0.0
 43
0.0
 43
0.0
 43
0.0
 43
1.0
 43
0.0
 43
0.0
 43
0.0
 43
0.0
 43
1.0
 77
     0
 47
0.0208333333333333
 47
0.0
 47
0.0
 47
0.0
 47
0.0
 47
0.0208333333333333
 47
0.0
 47
0.0
 47
0.0
 47
0.0
 47
1.0
 47
0.0
 47
0.0
 47
0.0
 47
0.0
 47
1.0
171
     0
 49
0.0208333333333333
 49
0.0
 49
0.0
 49
0.0
 49
0.0
 49
0.0208333333333333
 49
0.0
 49
0.0
 49
0.0
 49
0.0
 49
1.0
 49
0.0
 49
0.0
 49
0.0
 49
0.0
 49
1.0
175
     0
142
0.0208333333333333
142
0.0
142
0.0
142
0.0
142
0.0
142
0.0208333333333333
142
0.0
142
0.0
142
0.0
142
0.0
142
1.0
142
0.0
142
0.0
142
0.0
142
0.0
142
1.0
179
     0
144
0.0208333333333333
144
0.0
144
0.0
144
0.0
144
0.0
144
0.0208333333333333
144
0.0
144
0.0
144
0.0
144
0.0
144
1.0
144
0.0
144
0.0
144
0.0
144
0.0
144
1.0
147
0.0208333333333333
147
0.0
147
0.0
147
0.0
147
0.0
147
0.0208333333333333
147
0.0
147
0.0
147
0.0
147
0.0
147
1.0
147
0.0
147
0.0
147
0.0
147
0.0
147
1.0
  0
MLEADERSTYLE
  5
67
102
{ACAD_REACTORS
330
66
102
}
330
66
100
AcDbMLeaderStyle
179
     2
170
     2
171
     1
172
     0
 90
        2
 40
0.0
 41
0.0
173
     1
 91
-1056964608
340
5B
 92
       -2
290
     1
 42
0.09
291
     1
 43
0.36
  3
Standard
 44
0.18
300

342
55
174
     1
178
     6
175
     1
176
     0
 93
-1056964608
 45
0.18
292
     0
297
     0
 46
0.18
 94
-1056964608
 47
1.0
 49
1.0
140
1.0
293
     1
141
0.0
294
     1
177
     0
142
1.0
295
     1
296
     0
143
0.125
271
     0
272
     9
273
     9
298
     1
  0
MLINESTYLE
  5
60
102
{ACAD_REACTORS
330
5F
102
}
330
5F
100
AcDbMlineStyle
  2
STANDARD
 70
     0
  3

 62
   256
 51
90.0
 52
90.0
 71
     2
 49
0.5
 62
   256
  6
BYLAYER
 49
-0.5
 62
   256
  6
BYLAYER
  0
ACDBPLACEHOLDER
  5
F
102
{ACAD_REACTORS
330
E
102
}
330
E
  0
SCALE
  5
43
102
{ACAD_REACTORS
330
42
102
}
330
42
100
AcDbScale
 70
     0
300
1:1
140
1.0
141
1.0
290
     1
  0
SCALE
  5
44
102
{ACAD_REACTORS
330
42
102
}
330
42
100
AcDbScale
 70
     0
300
1/128" = 1'-0"
140
0.0078125
141
12.0
290
     0
  0
SCALE
  5
45
102
{ACAD_REACTORS
330
42
102
}
330
42
100
AcDbScale
 70
     0
300
1/64" = 1'-0"
140
0.015625
141
12.0
290
     0
  0
SCALE
  5
46
102
{ACAD_REACTORS
330
42
102
}
330
42
100
AcDbScale
 70
     0
300
1/32" = 1'-0"
140
0.03125
141
12.0
290
     0
  0
SCALE
  5
47
102
{ACAD_REACTORS
330
42
102
}
330
42
100
AcDbScale
 70
     0
300
1/16" = 1'-0"
140
0.0625
141
12.0
290
     0
  0
SCALE
  5
48
102
{ACAD_REACTORS
330
42
102
}
330
42
100
AcDbScale
 70
     0
300
3/32" = 1'-0"
140
0.09375
141
12.0
290
     0
  0
SCALE
  5
49
102
{ACAD_REACTORS
330
42
102
}
330
42
100
AcDbScale
 70
     0
300
1/8" = 1'-0"
140
0.125
141
12.0
290
     0
  0
SCALE
  5
4A
102
{ACAD_REACTORS
330
42
102
}
330
42
100
AcDbScale
 70
     0
300
3/16" = 1'-0"
140
0.1875
141
12.0
290
     0
  0
SCALE
  5
4B
102
{ACAD_REACTORS
330
42
102
}
330
42
100
AcDbScale
 70
     0
300
1/4" = 1'-0"
140
0.25
141
12.0
290
     0
  0
SCALE
  5
4C
102
{ACAD_REACTORS
330
42
102
}
330
42
100
AcDbScale
 70
     0
300
3/8" = 1'-0"
140
0.375
141
12.0
290
     0
  0
SCALE
  5
4D
102
{ACAD_REACTORS
330
42
102
}
330
42
100
AcDbScale
 70
     0
300
1/2" = 1'-0"
140
0.5
141
12.0
290
     0
  0
SCALE
  5
4E
102
{ACAD_REACTORS
330
42
102
}
330
42
100
AcDbScale
 70
     0
300
3/4" = 1'-0"
140
0.75
141
12.0
290
     0
  0
SCALE
  5
4F
102
{ACAD_REACTORS
330
42
102
}
330
42
100
AcDbScale
 70
     0
300
1" = 1'-0"
140
1.0
141
12.0
290
     0
  0
SCALE
  5
50
102
{ACAD_REACTORS
330
42
102
}
330
42
100
AcDbScale
 70
     0
300
1-1/2" = 1'-0"
140
1.5
141
12.0
290
     0
  0
SCALE
  5
51
102
{ACAD_REACTORS
330
42
102
}
330
42
100
AcDbScale
 70
     0
300
3" = 1'-0"
140
3.0
141
12.0
290
     0
  0
SCALE
  5
52
102
{ACAD_REACTORS
330
42
102
}
330
42
100
AcDbScale
 70
     0
300
6" = 1'-0"
140
6.0
141
12.0
290
     0
  0
SCALE
  5
53
102
{ACAD_REACTORS
330
42
102
}
330
42
100
AcDbScale
 70
     0
300
1'-0" = 1'-0"
140
12.0
141
12.0
290
     0
  0
ACDBSECTIONVIEWSTYLE
  5
69
102
{ACAD_REACTORS
330
68
102
}
330
68
100
AcDbModelDocViewStyle
 70
     0
  3
Imperial24
290
     1
300
Imperial24
 90
        0
100
AcDbSectionViewStyle
 70
     0
 71
     0
 90
       78
 71
     1
340
55
 62
   256
 40
0.24
340
0
340
0
 62
   256
 40
0.24
300
I, O, Q, S, X, Z
 40
0.48
 90
        3
 40
0.18
 90
        1
 71
     2
340
5D
 90
       25
 62
   256
340
5D
 90
       50
 62
   256
 40
0.24
 40
0.0
 40
0.24
 71
     3
340
55
 62
   256
 40
0.24
 90
        1
 40
0.75
 90
        1
300
%<\AcVar ViewType \f "%tc1">% %<\AcVar ViewSectionStartId>%-%<\AcVar ViewSectionEndId>%\PSCALE %<\AcVar ViewScale \f "%sn">%
 71
     4
 62
   256
 62
   257
300
ANSI31
 40
1.0
 90
        0
290
     0
290
     0
 90
        6
 40
0.0
 40
1.570796326794896
 40
0.2617993877991494
 40
1.308996938995747
 40
-0.2617993877991494
 40
1.832595714594046
  0
TABLESTYLE
  5
65
102
{ACAD_XDICTIONARY
360
1D0
102
}
102
{ACAD_REACTORS
330
64
102
}
330
64
100
AcDbTableStyle
280
     0
  3
Standard
 70
     0
 71
     0
 40
0.06
 41
0.06
280
     0
281
     0
  7
Standard
140
0.18
170
     2
 62
     0
 63
     7
283
     0
 90
      512
 91
        0
  1

274
    -2
284
     1
 64
     0
275
    -2
285
     1
 65
     0
276
    -2
286
     1
 66
     0
277
    -2
287
     1
 67
     0
278
    -2
288
     1
 68
     0
279
    -2
289
     1
 69
     0
  7
Standard
140
0.25
170
     5
 62
     0
 63
     7
283
     0
 90
      512
 91
        0
  1

274
    -2
284
     1
 64
     0
275
    -2
285
     1
 65
     0
276
    -2
286
     1
 66
     0
277
    -2
287
     1
 67
     0
278
    -2
288
     1
 68
     0
279
    -2
289
     1
 69
     0
  7
Standard
140
0.18
170
     5
 62
     0
 63
     7
283
     0
 90
      512
 91
        0
  1

274
    -2
284
     1
 64
     0
275
    -2
285
     1
 65
     0
276
    -2
286
     1
 66
     0
277
    -2
287
     1
 67
     0
278
    -2
288
     1
 68
     0
279
    -2
289
     1
 69
     0
  0
VISUALSTYLE
  5
2F
102
{ACAD_REACTORS
330
29
102
}
330
29
100
AcDbVisualStyle
  2
2dWireframe
 70
     4
177
     3
291
     0
 70
    58
 90
        0
176
     1
 90
        2
176
     1
 90
        0
176
     1
 90
        0
176
     1
 40
0.6
176
     1
 40
30.0
176
     1
 62
     7
420
 16777215
176
     1
 90
        1
176
     1
 90
        4
176
     1
 62
     7
176
     1
 62
   257
176
     1
 90
        1
176
     1
 90
        1
176
     1
 40
1.0
176
     1
 90
        0
176
     1
 62
   257
176
     1
 40
1.0
176
     1
 90
        1
176
     1
 90
        6
176
     1
 90
        2
176
     1
 62
     7
176
     1
 90
        5
176
     1
 90
        0
176
     1
 90
        0
176
     1
290
     0
176
     1
 90
        1
176
     1
 40
0.0
176
     1
 90
        0
176
     1
290
     1
176
     1
290
     1
176
     1
290
     0
176
     1
290
     0
176
     1
290
     0
176
     1
290
     0
176
     1
290
     0
176
     1
290
     0
176
     1
290
     0
176
     1
 90
       50
176
     1
 40
0.0
176
     1
 40
1.0
176
     1
 90
        0
176
     1
 62
    18
420
        0
176
     1
 90
       50
176
     1
 90
        3
176
     1
 62
     5
420
      255
176
     1
290
     0
176
     1
 90
       50
176
     1
 90
       50
176
     1
 90
       50
176
     1
290
     0
176
     1
 90
       50
176
     1
 62
   256
176
     0
 40
1.0
176
     0
 90
        2
176
     1
  1
strokes_ogs.tif
176
     1
290
     0
176
     1
 40
1.0
176
     1
 40
1.0
176
     1
  0
VISUALSTYLE
  5
2E
102
{ACAD_REACTORS
330
29
102
}
330
29
100
AcDbVisualStyle
  2
Basic
 70
     7
177
     3
291
     1
 70
    58
 90
        1
176
     1
 90
        0
176
     1
 90
        1
176
     1
 90
        0
176
     1
 40
0.6
176
     1
 40
30.0
176
     1
 62
     7
420
 16777215
176
     1
 90
        0
176
     1
 90
        4
176
     1
 62
     7
176
     1
 62
   257
176
     1
 90
        1
176
     1
 90
        1
176
     1
 40
1.0
176
     1
 90
        8
176
     1
 62
     7
176
     1
 40
1.0
176
     1
 90
        1
176
     1
 90
        6
176
     1
 90
        2
176
     1
 62
     7
176
     1
 90
        5
176
     1
 90
        0
176
     1
 90
        0
176
     1
290
     0
176
     1
 90
        1
176
     1
 40
0.0
176
     1
 90
        0
176
     1
290
     0
176
     1
290
     1
176
     1
290
     1
176
     1
290
     0
176
     1
290
     0
176
     1
290
     0
176
     1
290
     0
176
     1
290
     0
176
     1
290
     0
176
     1
 90
       50
176
     1
 40
0.0
176
     1
 40
1.0
176
     1
 90
        0
176
     1
 62
    18
420
        0
176
     1
 90
       50
176
     1
 90
        3
176
     1
 62
     5
420
      255
176
     1
290
     0
176
     1
 90
       50
176
     1
 90
       50
176
     1
 90
       50
176
     1
290
     0
176
     1
 90
       50
176
     1
 62
   256
176
     0
 40
1.0
176
     0
 90
        2
176
     1
  1
strokes_ogs.tif
176
     1
290
     0
176
     1
 40
1.0
176
     1
 40
1.0
176
     1
  0
VISUALSTYLE
  5
35
102
{ACAD_REACTORS
330
29
102
}
330
29
100
AcDbVisualStyle
  2
Brighten
 70
    12
177
     3
291
     1
 70
    58
 90
        2
176
     1
 90
        2
176
     1
 90
        0
176
     1
 90
        0
176
     1
 40
0.6
176
     1
 40
30.0
176
     1
 62
     7
420
 16777215
176
     1
 90
        1
176
     1
 90
        4
176
     1
 62
     7
176
     1
 62
   257
176
     1
 90
        1
176
     1
 90
        1
176
     1
 40
1.0
176
     1
 90
        8
176
     1
 62
     7
176
     1
 40
1.0
176
     1
 90
        1
176
     1
 90
        6
176
     1
 90
        2
176
     1
 62
     7
176
     1
 90
        5
176
     1
 90
        0
176
     1
 90
        0
176
     1
290
     0
176
     1
 90
        1
176
     1
 40
50.0
176
     1
 90
        0
176
     1
290
     0
176
     1
290
     1
176
     1
290
     1
176
     1
290
     0
176
     1
290
     0
176
     1
290
     0
176
     1
290
     0
176
     1
290
     0
176
     1
290
     0
176
     1
 90
       50
176
     1
 40
0.0
176
     1
 40
1.0
176
     1
 90
        0
176
     1
 62
    18
420
        0
176
     1
 90
       50
176
     1
 90
        3
176
     1
 62
     5
420
      255
176
     1
290
     0
176
     1
 90
       50
176
     1
 90
       50
176
     1
 90
       50
176
     1
290
     0
176
     1
 90
       50
176
     1
 62
   256
176
     0
 40
1.0
176
     0
 90
        2
176
     1
  1
strokes_ogs.tif
176
     1
290
     0
176
     1
 40
1.0
176
     1
 40
1.0
176
     1
  0
VISUALSTYLE
  5
39
102
{ACAD_REACTORS
330
29
102
}
330
29
100
AcDbVisualStyle
  2
ColorChange
 70
    16
177
     3
291
     1
 70
    58
 90
        2
176
     1
 90
        2
176
     1
 90
        3
176
     1
 90
        0
176
     1
 40
0.6
176
     1
 40
30.0
176
     1
 62
     8
420
  8421504
176
     1
 90
        1
176
     1
 90
        4
176
     1
 62
     7
176
     1
 62
   257
176
     1
 90
        1
176
     1
 90
        1
176
     1
 40
1.0
176
     1
 90
        8
176
     1
 62
     8
420
  8421504
176
     1
 40
1.0
176
     1
 90
        1
176
     1
 90
        6
176
     1
 90
        2
176
     1
 62
     7
176
     1
 90
        5
176
     1
 90
        0
176
     1
 90
        0
176
     1
290
     0
176
     1
 90
        1
176
     1
 40
0.0
176
     1
 90
        0
176
     1
290
     0
176
     1
290
     1
176
     1
290
     1
176
     1
290
     0
176
     1
290
     0
176
     1
290
     0
176
     1
290
     0
176
     1
290
     0
176
     1
290
     0
176
     1
 90
       50
176
     1
 40
0.0
176
     1
 40
1.0
176
     1
 90
        0
176
     1
 62
    18
420
        0
176
     1
 90
       50
176
     1
 90
        3
176
     1
 62
     5
420
      255
176
     1
290
     0
176
     1
 90
       50
176
     1
 90
       50
176
     1
 90
       50
176
     1
290
     0
176
     1
 90
       50
176
     1
 62
   256
176
     0
 40
1.0
176
     0
 90
        2
176
     1
  1
strokes_ogs.tif
176
     1
290
     0
176
     1
 40
1.0
176
     1
 40
1.0
176
     1
  0
VISUALSTYLE
  5
32
102
{ACAD_REACTORS
330
29
102
}
330
29
100
AcDbVisualStyle
  2
Conceptual
 70
     9
177
     3
291
     0
 70
    58
 90
        3
176
     1
 90
        2
176
     1
 90
        0
176
     1
 90
        0
176
     1
 40
0.6
176
     1
 40
30.0
176
     1
 62
     7
420
 16777215
176
     1
 90
        2
176
     1
 90
        2
176
     1
 62
     7
176
     1
 62
   257
176
     1
 90
        1
176
     1
 90
        1
176
     1
 40
179.0
176
     1
 90
        8
176
     1
 62
     7
176
     1
 40
1.0
176
     1
 90
        1
176
     1
 90
        6
176
     1
 90
        2
176
     1
 62
     7
176
     1
 90
        3
176
     1
 90
        0
176
     1
 90
        0
176
     1
290
     0
176
     1
 90
        1
176
     1
 40
0.0
176
     1
 90
        0
176
     1
290
     0
176
     1
290
     1
176
     1
290
     1
176
     1
290
     0
176
     1
290
     0
176
     1
290
     0
176
     1
290
     0
176
     1
290
     0
176
     1
290
     0
176
     1
 90
       50
176
     1
 40
0.0
176
     1
 40
1.0
176
     1
 90
        0
176
     1
 62
    18
420
        0
176
     1
 90
       50
176
     1
 90
        3
176
     1
 62
     5
420
      255
176
     1
290
     0
176
     1
 90
       50
176
     1
 90
       50
176
     1
 90
       50
176
     1
290
     0
176
     1
 90
       50
176
     1
 62
   256
176
     0
 40
1.0
176
     0
 90
        2
176
     1
  1
strokes_ogs.tif
176
     1
290
     0
176
     1
 40
1.0
176
     1
 40
1.0
176
     1
  0
VISUALSTYLE
  5
34
102
{ACAD_REACTORS
330
29
102
}
330
29
100
AcDbVisualStyle
  2
Dim
 70
    11
177
     3
291
     1
 70
    58
 90
        2
176
     1
 90
        2
176
     1
 90
        0
176
     1
 90
        0
176
     1
 40
0.6
176
     1
 40
30.0
176
     1
 62
     7
420
 16777215
176
     1
 90
        1
176
     1
 90
        4
176
     1
 62
     7
176
     1
 62
   257
176
     1
 90
        1
176
     1
 90
        1
176
     1
 40
1.0
176
     1
 90
        8
176
     1
 62
     7
176
     1
 40
1.0
176
     1
 90
        1
176
     1
 90
        6
176
     1
 90
        2
176
     1
 62
     7
176
     1
 90
        5
176
     1
 90
        0
176
     1
 90
        0
176
     1
290
     0
176
     1
 90
        1
176
     1
 40
-50.0
176
     1
 90
        0
176
     1
290
     0
176
     1
290
     1
176
     1
290
     1
176
     1
290
     0
176
     1
290
     0
176
     1
290
     0
176
     1
290
     0
176
     1
290
     0
176
     1
290
     0
176
     1
 90
       50
176
     1
 40
0.0
176
     1
 40
1.0
176
     1
 90
        0
176
     1
 62
    18
420
        0
176
     1
 90
       50
176
     1
 90
        3
176
     1
 62
     5
420
      255
176
     1
290
     0
176
     1
 90
       50
176
     1
 90
       50
176
     1
 90
       50
176
     1
290
     0
176
     1
 90
       50
176
     1
 62
   256
176
     0
 40
1.0
176
     0
 90
        2
176
     1
  1
strokes_ogs.tif
176
     1
290
     0
176
     1
 40
1.0
176
     1
 40
1.0
176
     1
  0
VISUALSTYLE
  5
41
102
{ACAD_REACTORS
330
29
102
}
330
29
100
AcDbVisualStyle
  2
EdgeColorOff
 70
    22
177
     3
291
     1
 70
    58
 90
        2
176
     0
 90
        2
176
     0
 90
        0
176
     0
 90
        0
176
     0
 40
0.6
176
     0
 40
30.0
176
     0
 62
     7
420
 16777215
176
     0
 90
        1
176
     0
 90
        4
176
     0
 62
     7
176
     0
 62
   257
176
     0
 90
        1
176
     0
 90
        1
176
     0
 40
1.0
176
     0
 90
        8
176
     2
 62
     7
176
     0
 40
1.0
176
     0
 90
        1
176
     0
 90
        6
176
     0
 90
        2
176
     0
 62
     7
176
     0
 90
        5
176
     0
 90
        0
176
     0
 90
        0
176
     0
290
     0
176
     0
 90
        1
176
     0
 40
0.0
176
     0
 90
        0
176
     0
290
     0
176
     0
290
     1
176
     0
290
     1
176
     0
290
     0
176
     0
290
     0
176
     0
290
     0
176
     0
290
     0
176
     0
290
     0
176
     0
290
     0
176
     0
 90
       50
176
     0
 40
0.0
176
     0
 40
1.0
176
     0
 90
        0
176
     0
 62
    18
420
        0
176
     0
 90
       50
176
     0
 90
        3
176
     0
 62
     5
420
      255
176
     0
290
     0
176
     0
 90
       50
176
     0
 90
       50
176
     0
 90
       50
176
     0
290
     0
176
     0
 90
       50
176
     0
 62
   256
176
     0
 40
1.0
176
     0
 90
        2
176
     0
  1
strokes_ogs.tif
176
     0
290
     0
176
     0
 40
1.0
176
     0
 40
1.0
176
     0
  0
VISUALSTYLE
  5
38
102
{ACAD_REACTORS
330
29
102
}
330
29
100
AcDbVisualStyle
  2
Facepattern
 70
    15
177
     3
291
     1
 70
    58
 90
        2
176
     1
 90
        2
176
     1
 90
        0
176
     1
 90
        0
176
     1
 40
0.6
176
     1
 40
30.0
176
     1
 62
     7
420
 16777215
176
     1
 90
        1
176
     1
 90
        4
176
     1
 62
     7
176
     1
 62
   257
176
     1
 90
        1
176
     1
 90
        1
176
     1
 40
1.0
176
     1
 90
        8
176
     1
 62
     7
176
     1
 40
1.0
176
     1
 90
        1
176
     1
 90
        6
176
     1
 90
        2
176
     1
 62
     7
176
     1
 90
        5
176
     1
 90
        0
176
     1
 90
        0
176
     1
290
     0
176
     1
 90
        1
176
     1
 40
0.0
176
     1
 90
        0
176
     1
290
     0
176
     1
290
     1
176
     1
290
     1
176
     1
290
     0
176
     1
290
     0
176
     1
290
     0
176
     1
290
     0
176
     1
290
     0
176
     1
290
     0
176
     1
 90
       50
176
     1
 40
0.0
176
     1
 40
1.0
176
     1
 90
        0
176
     1
 62
    18
420
        0
176
     1
 90
       50
176
     1
 90
        3
176
     1
 62
     5
420
      255
176
     1
290
     0
176
     1
 90
       50
176
     1
 90
       50
176
     1
 90
       50
176
     1
290
     0
176
     1
 90
       50
176
     1
 62
   256
176
     0
 40
1.0
176
     0
 90
        2
176
     1
  1
strokes_ogs.tif
176
     1
290
     0
176
     1
 40
1.0
176
     1
 40
1.0
176
     1
  0
VISUALSTYLE
  5
2A
102
{ACAD_REACTORS
330
29
102
}
330
29
100
AcDbVisualStyle
  2
Flat
 70
     0
177
     3
291
     1
 70
    58
 90
        2
176
     1
 90
        1
176
     1
 90
        1
176
     1
 90
        2
176
     1
 40
0.6
176
     1
 40
30.0
176
     1
 62
     7
420
 16777215
176
     1
 90
        0
176
     1
 90
        0
176
     1
 62
     7
176
     1
 62
   257
176
     1
 90
        1
176
     1
 90
        1
176
     1
 40
1.0
176
     1
 90
        8
176
     1
 62
     7
176
     1
 40
1.0
176
     1
 90
        1
176
     1
 90
        6
176
     1
 90
        2
176
     1
 62
     7
176
     1
 90
        5
176
     1
 90
        0
176
     1
 90
        0
176
     1
290
     0
176
     1
 90
       13
176
     1
 40
0.0
176
     1
 90
        0
176
     1
290
     0
176
     1
290
     1
176
     1
290
     1
176
     1
290
     0
176
     1
290
     0
176
     1
290
     0
176
     1
290
     0
176
     1
290
     0
176
     1
290
     0
176
     1
 90
       50
176
     1
 40
0.0
176
     1
 40
1.0
176
     1
 90
        0
176
     1
 62
    18
420
        0
176
     1
 90
       50
176
     1
 90
        3
176
     1
 62
     5
420
      255
176
     1
290
     0
176
     1
 90
       50
176
     1
 90
       50
176
     1
 90
       50
176
     1
290
     0
176
     1
 90
       50
176
     1
 62
   256
176
     0
 40
1.0
176
     0
 90
        2
176
     1
  1
strokes_ogs.tif
176
     1
290
     0
176
     1
 40
1.0
176
     1
 40
1.0
176
     1
  0
VISUALSTYLE
  5
2B
102
{ACAD_REACTORS
330
29
102
}
330
29
100
AcDbVisualStyle
  2
FlatWithEdges
 70
     1
177
     3
291
     1
 70
    58
 90
        2
176
     1
 90
        1
176
     1
 90
        1
176
     1
 90
        2
176
     1
 40
0.6
176
     1
 40
30.0
176
     1
 62
     7
420
 16777215
176
     1
 90
        1
176
     1
 90
        0
176
     1
 62
     7
176
     1
 62
   257
176
     1
 90
        1
176
     1
 90
        1
176
     1
 40
1.0
176
     1
 90
        0
176
     1
 62
   257
176
     1
 40
1.0
176
     1
 90
        1
176
     1
 90
        6
176
     1
 90
        2
176
     1
 62
     7
176
     1
 90
        5
176
     1
 90
        0
176
     1
 90
        0
176
     1
290
     0
176
     1
 90
       13
176
     1
 40
0.0
176
     1
 90
        0
176
     1
290
     0
176
     1
290
     1
176
     1
290
     1
176
     1
290
     0
176
     1
290
     0
176
     1
290
     0
176
     1
290
     0
176
     1
290
     0
176
     1
290
     0
176
     1
 90
       50
176
     1
 40
0.0
176
     1
 40
1.0
176
     1
 90
        0
176
     1
 62
    18
420
        0
176
     1
 90
       50
176
     1
 90
        3
176
     1
 62
     5
420
      255
176
     1
290
     0
176
     1
 90
       50
176
     1
 90
       50
176
     1
 90
       50
176
     1
290
     0
176
     1
 90
       50
176
     1
 62
   256
176
     0
 40
1.0
176
     0
 90
        2
176
     1
  1
strokes_ogs.tif
176
     1
290
     0
176
     1
 40
1.0
176
     1
 40
1.0
176
     1
  0
VISUALSTYLE
  5
2C
102
{ACAD_REACTORS
330
29
102
}
330
29
100
AcDbVisualStyle
  2
Gouraud
 70
     2
177
     3
291
     1
 70
    58
 90
        2
176
     1
 90
        2
176
     1
 90
        1
176
     1
 90
        2
176
     1
 40
0.6
176
     1
 40
30.0
176
     1
 62
     7
420
 16777215
176
     1
 90
        0
176
     1
 90
        0
176
     1
 62
     7
176
     1
 62
   257
176
     1
 90
        1
176
     1
 90
        1
176
     1
 40
1.0
176
     1
 90
        0
176
     1
 62
     7
176
     1
 40
1.0
176
     1
 90
        1
176
     1
 90
        6
176
     1
 90
        2
176
     1
 62
     7
176
     1
 90
        5
176
     1
 90
        0
176
     1
 90
        0
176
     1
290
     0
176
     1
 90
       13
176
     1
 40
0.0
176
     1
 90
        0
176
     1
290
     0
176
     1
290
     1
176
     1
290
     1
176
     1
290
     0
176
     1
290
     0
176
     1
290
     0
176
     1
290
     0
176
     1
290
     0
176
     1
290
     0
176
     1
 90
       50
176
     1
 40
0.0
176
     1
 40
1.0
176
     1
 90
        0
176
     1
 62
    18
420
        0
176
     1
 90
       50
176
     1
 90
        3
176
     1
 62
     5
420
      255
176
     1
290
     0
176
     1
 90
       50
176
     1
 90
       50
176
     1
 90
       50
176
     1
290
     0
176
     1
 90
       50
176
     1
 62
   256
176
     0
 40
1.0
176
     0
 90
        2
176
     1
  1
strokes_ogs.tif
176
     1
290
     0
176
     1
 40
1.0
176
     1
 40
1.0
176
     1
  0
VISUALSTYLE
  5
2D
102
{ACAD_REACTORS
330
29
102
}
330
29
100
AcDbVisualStyle
  2
GouraudWithEdges
 70
     3
177
     3
291
     1
 70
    58
 90
        2
176
     1
 90
        2
176
     1
 90
        1
176
     1
 90
        2
176
     1
 40
0.6
176
     1
 40
30.0
176
     1
 62
     7
420
 16777215
176
     1
 90
        1
176
     1
 90
        0
176
     1
 62
     7
176
     1
 62
   257
176
     1
 90
        1
176
     1
 90
        1
176
     1
 40
1.0
176
     1
 90
        0
176
     1
 62
   257
176
     1
 40
1.0
176
     1
 90
        1
176
     1
 90
        6
176
     1
 90
        2
176
     1
 62
     7
176
     1
 90
        5
176
     1
 90
        0
176
     1
 90
        0
176
     1
290
     0
176
     1
 90
       13
176
     1
 40
0.0
176
     1
 90
        0
176
     1
290
     0
176
     1
290
     1
176
     1
290
     1
176
     1
290
     0
176
     1
290
     0
176
     1
290
     0
176
     1
290
     0
176
     1
290
     0
176
     1
290
     0
176
     1
 90
       50
176
     1
 40
0.0
176
     1
 40
1.0
176
     1
 90
        0
176
     1
 62
    18
420
        0
176
     1
 90
       50
176
     1
 90
        3
176
     1
 62
     5
420
      255
176
     1
290
     0
176
     1
 90
       50
176
     1
 90
       50
176
     1
 90
       50
176
     1
290
     0
176
     1
 90
       50
176
     1
 62
   256
176
     0
 40
1.0
176
     0
 90
        2
176
     1
  1
strokes_ogs.tif
176
     1
290
     0
176
     1
 40
1.0
176
     1
 40
1.0
176
     1
  0
VISUALSTYLE
  5
31
102
{ACAD_REACTORS
330
29
102
}
330
29
100
AcDbVisualStyle
  2
Hidden
 70
     6
177
     3
291
     0
 70
    58
 90
        1
176
     1
 90
        2
176
     1
 90
        2
176
     1
 90
        0
176
     1
 40
0.6
176
     1
 40
30.0
176
     1
 62
     7
420
 16777215
176
     1
 90
        2
176
     1
 90
        2
176
     1
 62
     7
176
     1
 62
   257
176
     1
 90
        2
176
     1
 90
        1
176
     1
 40
40.0
176
     1
 90
        0
176
     1
 62
   257
176
     1
 40
1.0
176
     1
 90
        1
176
     1
 90
        6
176
     1
 90
        2
176
     1
 62
     7
176
     1
 90
        3
176
     1
 90
        0
176
     1
 90
        0
176
     1
290
     0
176
     1
 90
        1
176
     1
 40
0.0
176
     1
 90
        0
176
     1
290
     0
176
     1
290
     1
176
     1
290
     1
176
     1
290
     0
176
     1
290
     0
176
     1
290
     0
176
     1
290
     0
176
     1
290
     0
176
     1
290
     0
176
     1
 90
       50
176
     1
 40
0.0
176
     1
 40
1.0
176
     1
 90
        0
176
     1
 62
    18
420
        0
176
     1
 90
       50
176
     1
 90
        3
176
     1
 62
     5
420
      255
176
     1
290
     0
176
     1
 90
       50
176
     1
 90
       50
176
     1
 90
       50
176
     1
290
     0
176
     1
 90
       50
176
     1
 62
   256
176
     0
 40
1.0
176
     0
 90
        2
176
     1
  1
strokes_ogs.tif
176
     1
290
     0
176
     1
 40
1.0
176
     1
 40
1.0
176
     1
  0
VISUALSTYLE
  5
3F
102
{ACAD_REACTORS
330
29
102
}
330
29
100
AcDbVisualStyle
  2
JitterOff
 70
    20
177
     3
291
     1
 70
    58
 90
        2
176
     0
 90
        2
176
     0
 90
        0
176
     0
 90
        0
176
     0
 40
0.6
176
     0
 40
30.0
176
     0
 62
     7
420
 16777215
176
     0
 90
        1
176
     0
 90
        4
176
     0
 62
     7
176
     0
 62
   257
176
     0
 90
        1
176
     0
 90
        1
176
     0
 40
1.0
176
     0
 90
       10
176
     2
 62
     7
176
     0
 40
1.0
176
     0
 90
        1
176
     0
 90
        6
176
     0
 90
        2
176
     0
 62
     7
176
     0
 90
        5
176
     0
 90
        0
176
     0
 90
        0
176
     0
290
     0
176
     0
 90
        1
176
     0
 40
0.0
176
     0
 90
        0
176
     0
290
     0
176
     0
290
     1
176
     0
290
     1
176
     0
290
     0
176
     0
290
     0
176
     0
290
     0
176
     0
290
     0
176
     0
290
     0
176
     0
290
     0
176
     0
 90
       50
176
     0
 40
0.0
176
     0
 40
1.0
176
     0
 90
        0
176
     0
 62
    18
420
        0
176
     0
 90
       50
176
     0
 90
        3
176
     0
 62
     5
420
      255
176
     0
290
     0
176
     0
 90
       50
176
     0
 90
       50
176
     0
 90
       50
176
     0
290
     0
176
     0
 90
       50
176
     0
 62
   256
176
     0
 40
1.0
176
     0
 90
        2
176
     0
  1
strokes_ogs.tif
176
     0
290
     0
176
     0
 40
1.0
176
     0
 40
1.0
176
     0
  0
VISUALSTYLE
  5
37
102
{ACAD_REACTORS
330
29
102
}
330
29
100
AcDbVisualStyle
  2
Linepattern
 70
    14
177
     3
291
     1
 70
    58
 90
        2
176
     1
 90
        2
176
     1
 90
        0
176
     1
 90
        0
176
     1
 40
0.6
176
     1
 40
30.0
176
     1
 62
     7
420
 16777215
176
     1
 90
        1
176
     1
 90
        4
176
     1
 62
     7
176
     1
 62
   257
176
     1
 90
        7
176
     1
 90
        7
176
     1
 40
1.0
176
     1
 90
        8
176
     1
 62
     7
176
     1
 40
1.0
176
     1
 90
        1
176
     1
 90
        6
176
     1
 90
        2
176
     1
 62
     7
176
     1
 90
        5
176
     1
 90
        0
176
     1
 90
        0
176
     1
290
     0
176
     1
 90
        1
176
     1
 40
0.0
176
     1
 90
        0
176
     1
290
     0
176
     1
290
     1
176
     1
290
     1
176
     1
290
     0
176
     1
290
     0
176
     1
290
     0
176
     1
290
     0
176
     1
290
     0
176
     1
290
     0
176
     1
 90
       50
176
     1
 40
0.0
176
     1
 40
1.0
176
     1
 90
        0
176
     1
 62
    18
420
        0
176
     1
 90
       50
176
     1
 90
        3
176
     1
 62
     5
420
      255
176
     1
290
     0
176
     1
 90
       50
176
     1
 90
       50
176
     1
 90
       50
176
     1
290
     0
176
     1
 90
       50
176
     1
 62
   256
176
     0
 40
1.0
176
     0
 90
        2
176
     1
  1
strokes_ogs.tif
176
     1
290
     0
176
     1
 40
1.0
176
     1
 40
1.0
176
     1
  0
VISUALSTYLE
  5
40
102
{ACAD_REACTORS
330
29
102
}
330
29
100
AcDbVisualStyle
  2
OverhangOff
 70
    21
177
     3
291
     1
 70
    58
 90
        2
176
     0
 90
        2
176
     0
 90
        0
176
     0
 90
        0
176
     0
 40
0.6
176
     0
 40
30.0
176
     0
 62
     7
420
 16777215
176
     0
 90
        1
176
     0
 90
        4
176
     0
 62
     7
176
     0
 62
   257
176
     0
 90
        1
176
     0
 90
        1
176
     0
 40
1.0
176
     0
 90
        9
176
     2
 62
     7
176
     0
 40
1.0
176
     0
 90
        1
176
     0
 90
        6
176
     0
 90
        2
176
     0
 62
     7
176
     0
 90
        5
176
     0
 90
        0
176
     0
 90
        0
176
     0
290
     0
176
     0
 90
        1
176
     0
 40
0.0
176
     0
 90
        0
176
     0
290
     0
176
     0
290
     1
176
     0
290
     1
176
     0
290
     0
176
     0
290
     0
176
     0
290
     0
176
     0
290
     0
176
     0
290
     0
176
     0
290
     0
176
     0
 90
       50
176
     0
 40
0.0
176
     0
 40
1.0
176
     0
 90
        0
176
     0
 62
    18
420
        0
176
     0
 90
       50
176
     0
 90
        3
176
     0
 62
     5
420
      255
176
     0
290
     0
176
     0
 90
       50
176
     0
 90
       50
176
     0
 90
       50
176
     0
290
     0
176
     0
 90
       50
176
     0
 62
   256
176
     0
 40
1.0
176
     0
 90
        2
176
     0
  1
strokes_ogs.tif
176
     0
290
     0
176
     0
 40
1.0
176
     0
 40
1.0
176
     0
  0
VISUALSTYLE
  5
33
102
{ACAD_REACTORS
330
29
102
}
330
29
100
AcDbVisualStyle
  2
Realistic
 70
     8
177
     3
291
     0
 70
    58
 90
        2
176
     1
 90
        3
176
     1
 90
        0
176
     1
 90
        2
176
     1
 40
0.6
176
     1
 40
30.0
176
     1
 62
     7
420
 16777215
176
     1
 90
        0
176
     1
 90
        0
176
     1
 62
     7
176
     1
 62
   257
176
     1
 90
        1
176
     1
 90
        1
176
     1
 40
1.0
176
     1
 90
        8
176
     1
 62
   257
176
     1
 40
1.0
176
     1
 90
        1
176
     1
 90
        6
176
     1
 90
        2
176
     1
 62
     7
176
     1
 90
        3
176
     1
 90
        0
176
     1
 90
        0
176
     1
290
     0
176
     1
 90
       13
176
     1
 40
0.0
176
     1
 90
        0
176
     1
290
     0
176
     1
290
     1
176
     1
290
     1
176
     1
290
     0
176
     1
290
     0
176
     1
290
     0
176
     1
290
     0
176
     1
290
     0
176
     1
290
     0
176
     1
 90
       50
176
     1
 40
0.0
176
     1
 40
1.0
176
     1
 90
        0
176
     1
 62
    18
420
        0
176
     1
 90
       50
176
     1
 90
        3
176
     1
 62
     5
420
      255
176
     1
290
     0
176
     1
 90
       50
176
     1
 90
       50
176
     1
 90
       50
176
     1
290
     0
176
     1
 90
       50
176
     1
 62
   256
176
     0
 40
1.0
176
     0
 90
        2
176
     1
  1
strokes_ogs.tif
176
     1
290
     0
176
     1
 40
1.0
176
     1
 40
1.0
176
     1
  0
VISUALSTYLE
  5
3E
102
{ACAD_REACTORS
330
29
102
}
330
29
100
AcDbVisualStyle
  2
Shaded
 70
    27
177
     3
291
     0
 70
    58
 90
        2
176
     1
 90
        2
176
     1
 90
        1
176
     1
 90
        2
176
     1
 40
0.6
176
     1
 40
30.0
176
     1
 62
     7
420
 16777215
176
     1
 90
        0
176
     1
 90
        4
176
     1
 62
     7
176
     1
 62
   257
176
     1
 90
        1
176
     1
 90
        1
176
     1
 40
1.0
176
     1
 90
        8
176
     1
 62
   257
176
     1
 40
1.0
176
     1
 90
        1
176
     1
 90
        6
176
     1
 90
        2
176
     1
 62
     8
420
  7895160
176
     1
 90
        3
176
     1
 90
        0
176
     1
 90
        0
176
     1
290
     0
176
     1
 90
        5
176
     1
 40
0.0
176
     1
 90
        0
176
     1
290
     0
176
     1
290
     1
176
     1
290
     1
176
     1
290
     0
176
     1
290
     0
176
     1
290
     0
176
     1
290
     0
176
     1
290
     0
176
     1
290
     0
176
     1
 90
       50
176
     1
 40
0.0
176
     1
 40
1.0
176
     1
 90
        0
176
     1
 62
    18
420
        0
176
     1
 90
       50
176
     1
 90
        3
176
     1
 62
     5
420
      255
176
     1
290
     0
176
     1
 90
       50
176
     1
 90
       50
176
     1
 90
       50
176
     1
290
     0
176
     1
 90
       50
176
     1
 62
   256
176
     0
 40
1.0
176
     0
 90
        2
176
     1
  1
strokes_ogs.tif
176
     1
290
     0
176
     1
 40
1.0
176
     1
 40
1.0
176
     1
  0
VISUALSTYLE
  5
3D
102
{ACAD_REACTORS
330
29
102
}
330
29
100
AcDbVisualStyle
  2
Shaded with edges
 70
    26
177
     3
291
     0
 70
    58
 90
        2
176
     1
 90
        2
176
     1
 90
        1
176
     1
 90
        2
176
     1
 40
0.6
176
     1
 40
30.0
176
     1
 62
     7
420
 16777215
176
     1
 90
        1
176
     1
 90
        2
176
     1
 62
     7
176
     1
 62
   257
176
     1
 90
        2
176
     1
 90
        1
176
     1
 40
1.0
176
     1
 90
        8
176
     1
 62
   257
176
     1
 40
1.0
176
     1
 90
        1
176
     1
 90
        6
176
     1
 90
        2
176
     1
 62
     7
176
     1
 90
        3
176
     1
 90
        0
176
     1
 90
        0
176
     1
290
     0
176
     1
 90
        5
176
     1
 40
0.0
176
     1
 90
        0
176
     1
290
     0
176
     1
290
     1
176
     1
290
     1
176
     1
290
     0
176
     1
290
     0
176
     1
290
     0
176
     1
290
     0
176
     1
290
     0
176
     1
290
     0
176
     1
 90
       50
176
     1
 40
0.0
176
     1
 40
1.0
176
     1
 90
        0
176
     1
 62
    18
420
        0
176
     1
 90
       50
176
     1
 90
        3
176
     1
 62
     5
420
      255
176
     1
290
     0
176
     1
 90
       50
176
     1
 90
       50
176
     1
 90
       50
176
     1
290
     0
176
     1
 90
       50
176
     1
 62
   256
176
     0
 40
1.0
176
     0
 90
        2
176
     1
  1
strokes_ogs.tif
176
     1
290
     0
176
     1
 40
1.0
176
     1
 40
1.0
176
     1
  0
VISUALSTYLE
  5
3A
102
{ACAD_REACTORS
330
29
102
}
330
29
100
AcDbVisualStyle
  2
Shades of Gray
 70
    23
177
     3
291
     0
 70
    58
 90
        2
176
     1
 90
        2
176
     1
 90
        3
176
     1
 90
        0
176
     1
 40
0.6
176
     1
 40
30.0
176
     1
 62
     7
420
 16777215
176
     1
 90
        2
176
     1
 90
        2
176
     1
 62
     7
176
     1
 62
     7
176
     1
 90
        1
176
     1
 90
        1
176
     1
 40
40.0
176
     1
 90
        8
176
     1
 62
     7
176
     1
 40
1.0
176
     1
 90
        1
176
     1
 90
        6
176
     1
 90
        2
176
     1
 62
     7
176
     1
 90
        3
176
     1
 90
        0
176
     1
 90
        0
176
     1
290
     0
176
     1
 90
        1
176
     1
 40
0.0
176
     1
 90
        0
176
     1
290
     0
176
     1
290
     1
176
     1
290
     1
176
     1
290
     0
176
     1
290
     0
176
     1
290
     0
176
     1
290
     0
176
     1
290
     0
176
     1
290
     0
176
     1
 90
       50
176
     1
 40
0.0
176
     1
 40
1.0
176
     1
 90
        0
176
     1
 62
    18
420
        0
176
     1
 90
       50
176
     1
 90
        3
176
     1
 62
     5
420
      255
176
     1
290
     0
176
     1
 90
       50
176
     1
 90
       50
176
     1
 90
       50
176
     1
290
     0
176
     1
 90
       50
176
     1
 62
   256
176
     0
 40
1.0
176
     0
 90
        2
176
     1
  1
strokes_ogs.tif
176
     1
290
     0
176
     1
 40
1.0
176
     1
 40
1.0
176
     1
  0
VISUALSTYLE
  5
3B
102
{ACAD_REACTORS
330
29
102
}
330
29
100
AcDbVisualStyle
  2
Sketchy
 70
    24
177
     3
291
     0
 70
    58
 90
        1
176
     1
 90
        2
176
     1
 90
        2
176
     1
 90
        0
176
     1
 40
0.6
176
     1
 40
30.0
176
     1
 62
     7
420
 16777215
176
     1
 90
        2
176
     1
 90
        2
176
     1
 62
     7
176
     1
 62
     7
176
     1
 90
        1
176
     1
 90
        1
176
     1
 40
40.0
176
     1
 90
       11
176
     1
 62
     7
176
     1
 40
1.0
176
     1
 90
        1
176
     1
 90
        6
176
     1
 90
        2
176
     1
 62
     7
176
     1
 90
        6
176
     1
 90
        0
176
     1
 90
        0
176
     1
290
     0
176
     1
 90
        1
176
     1
 40
0.0
176
     1
 90
        0
176
     1
290
     0
176
     1
290
     1
176
     1
290
     1
176
     1
290
     0
176
     1
290
     0
176
     1
290
     0
176
     1
290
     0
176
     1
290
     0
176
     1
290
     0
176
     1
 90
       50
176
     1
 40
0.0
176
     1
 40
1.0
176
     1
 90
        0
176
     1
 62
    18
420
        0
176
     1
 90
       50
176
     1
 90
        3
176
     1
 62
     5
420
      255
176
     1
290
     0
176
     1
 90
       50
176
     1
 90
       50
176
     1
 90
       50
176
     1
290
     0
176
     1
 90
       50
176
     1
 62
   256
176
     0
 40
1.0
176
     0
 90
        2
176
     1
  1
strokes_ogs.tif
176
     1
290
     0
176
     1
 40
1.0
176
     1
 40
1.0
176
     1
  0
VISUALSTYLE
  5
36
102
{ACAD_REACTORS
330
29
102
}
330
29
100
AcDbVisualStyle
  2
Thicken
 70
    13
177
     3
291
     1
 70
    58
 90
        2
176
     1
 90
        2
176
     1
 90
        0
176
     1
 90
        0
176
     1
 40
0.6
176
     1
 40
30.0
176
     1
 62
     7
420
 16777215
176
     1
 90
        1
176
     1
 90
        4
176
     1
 62
     7
176
     1
 62
   257
176
     1
 90
        1
176
     1
 90
        1
176
     1
 40
1.0
176
     1
 90
       12
176
     1
 62
     7
176
     1
 40
1.0
176
     1
 90
        1
176
     1
 90
        6
176
     1
 90
        2
176
     1
 62
     7
176
     1
 90
        5
176
     1
 90
        0
176
     1
 90
        0
176
     1
290
     0
176
     1
 90
        1
176
     1
 40
0.0
176
     1
 90
        0
176
     1
290
     0
176
     1
290
     1
176
     1
290
     1
176
     1
290
     0
176
     1
290
     0
176
     1
290
     0
176
     1
290
     0
176
     1
290
     0
176
     1
290
     0
176
     1
 90
       50
176
     1
 40
0.0
176
     1
 40
1.0
176
     1
 90
        0
176
     1
 62
    18
420
        0
176
     1
 90
       50
176
     1
 90
        3
176
     1
 62
     5
420
      255
176
     1
290
     0
176
     1
 90
       50
176
     1
 90
       50
176
     1
 90
       50
176
     1
290
     0
176
     1
 90
       50
176
     1
 62
   256
176
     0
 40
1.0
176
     0
 90
        2
176
     1
  1
strokes_ogs.tif
176
     1
290
     0
176
     1
 40
1.0
176
     1
 40
1.0
176
     1
  0
VISUALSTYLE
  5
30
102
{ACAD_REACTORS
330
29
102
}
330
29
100
AcDbVisualStyle
  2
Wireframe
 70
     5
177
     3
291
     0
 70
    58
 90
        0
176
     1
 90
        2
176
     1
 90
        0
176
     1
 90
        0
176
     1
 40
0.6
176
     1
 40
30.0
176
     1
 62
     7
420
 16777215
176
     1
 90
        1
176
     1
 90
        4
176
     1
 62
     7
176
     1
 62
   257
176
     1
 90
        1
176
     1
 90
        1
176
     1
 40
1.0
176
     1
 90
        0
176
     1
 62
   257
176
     1
 40
1.0
176
     1
 90
        1
176
     1
 90
        6
176
     1
 90
        2
176
     1
 62
     7
176
     1
 90
        3
176
     1
 90
        0
176
     1
 90
        0
176
     1
290
     0
176
     1
 90
        1
176
     1
 40
0.0
176
     1
 90
        0
176
     1
290
     0
176
     1
290
     1
176
     1
290
     1
176
     1
290
     0
176
     1
290
     0
176
     1
290
     0
176
     1
290
     0
176
     1
290
     0
176
     1
290
     0
176
     1
 90
       50
176
     1
 40
0.0
176
     1
 40
1.0
176
     1
 90
        0
176
     1
 62
    18
420
        0
176
     1
 90
       50
176
     1
 90
        3
176
     1
 62
     5
420
      255
176
     1
290
     0
176
     1
 90
       50
176
     1
 90
       50
176
     1
 90
       50
176
     1
290
     0
176
     1
 90
       50
176
     1
 62
   256
176
     0
 40
1.0
176
     0
 90
        2
176
     1
  1
strokes_ogs.tif
176
     1
290
     0
176
     1
 40
1.0
176
     1
 40
1.0
176
     1
  0
VISUALSTYLE
  5
3C
102
{ACAD_REACTORS
330
29
102
}
330
29
100
AcDbVisualStyle
  2
X-Ray
 70
    25
177
     3
291
     0
 70
    58
 90
        2
176
     1
 90
        2
176
     1
 90
        1
176
     1
 90
        1
176
     1
 40
0.5
176
     1
 40
30.0
176
     1
 62
     7
420
 16777215
176
     1
 90
        1
176
     1
 90
        0
176
     1
 62
     7
176
     1
 62
   257
176
     1
 90
        1
176
     1
 90
        1
176
     1
 40
1.0
176
     1
 90
        8
176
     1
 62
     7
176
     1
 40
1.0
176
     1
 90
        1
176
     1
 90
        6
176
     1
 90
        2
176
     1
 62
     7
176
     1
 90
        3
176
     1
 90
        0
176
     1
 90
        0
176
     1
290
     0
176
     1
 90
       13
176
     1
 40
0.0
176
     1
 90
        0
176
     1
290
     0
176
     1
290
     1
176
     1
290
     1
176
     1
290
     0
176
     1
290
     0
176
     1
290
     0
176
     1
290
     0
176
     1
290
     0
176
     1
290
     0
176
     1
 90
       50
176
     1
 40
0.0
176
     1
 40
1.0
176
     1
 90
        0
176
     1
 62
    18
420
        0
176
     1
 90
       50
176
     1
 90
        3
176
     1
 62
     5
420
      255
176
     1
290
     0
176
     1
 90
       50
176
     1
 90
       50
176
     1
 90
       50
176
     1
290
     0
176
     1
 90
       50
176
     1
 62
   256
176
     0
 40
1.0
176
     0
 90
        2
176
     1
  1
strokes_ogs.tif
176
     1
290
     0
176
     1
 40
1.0
176
     1
 40
1.0
176
     1
  0
DICTIONARYVAR
  5
1CF
102
{ACAD_REACTORS
330
1CA
102
}
330
1CA
100
DictionaryVariables
280
     0
  1
1:1
  0
DICTIONARYVAR
  5
1CC
102
{ACAD_REACTORS
330
1CA
102
}
330
1CA
100
DictionaryVariables
280
     0
  1
STANDARD
  0
DICTIONARYVAR
  5
1CB
102
{ACAD_REACTORS
330
1CA
102
}
330
1CA
100
DictionaryVariables
280
     0
  1
STANDARD
  0
DICTIONARYVAR
  5
1CD
102
{ACAD_REACTORS
330
1CA
102
}
330
1CA
100
DictionaryVariables
280
     0
  1
Imperial24
  0
DICTIONARYVAR
  5
1CE
102
{ACAD_REACTORS
330
1CA
102
}
330
1CA
100
DictionaryVariables
280
     0
  1
Imperial24
  0
DICTIONARY
  5
1A
330
19
100
AcDbDictionary
280
     1
281
     1
  3
BUMPTILE
360
1C
  3
DIFFUSETILE
360
1B
  3
OPACITYTILE
360
1F
  3
REFLECTIONTILE
360
1E
  3
REFRACTIONTILE
360
20
  3
SPECULARTILE
360
1D
  0
DICTIONARY
  5
12
330
11
100
AcDbDictionary
280
     1
281
     1
  3
BUMPTILE
360
14
  3
DIFFUSETILE
360
13
  3
OPACITYTILE
360
17
  3
REFLECTIONTILE
360
16
  3
REFRACTIONTILE
360
18
  3
SPECULARTILE
360
15
  0
DICTIONARY
  5
22
330
21
100
AcDbDictionary
280
     1
281
     1
  3
BUMPTILE
360
24
  3
DIFFUSETILE
360
23
  3
OPACITYTILE
360
27
  3
REFLECTIONTILE
360
26
  3
REFRACTIONTILE
360
28
  3
SPECULARTILE
360
25
  0
DICTIONARY
  5
1D0
330
65
100
AcDbDictionary
280
     1
281
     1
  3
ACAD_ROUNDTRIP_2008_TABLESTYLE_CELLSTYLEMAP
360
1D1
  0
XRECORD
  5
1C
102
{ACAD_REACTORS
330
1A
102
}
330
1A
100
AcDbXrecord
280
     1
270
     1
271
     1
  0
XRECORD
  5
1B
102
{ACAD_REACTORS
330
1A
102
}
330
1A
100
AcDbXrecord
280
     1
270
     1
271
     1
  0
XRECORD
  5
1F
102
{ACAD_REACTORS
330
1A
102
}
330
1A
100
AcDbXrecord
280
     1
270
     1
271
     1
  0
XRECORD
  5
1E
102
{ACAD_REACTORS
330
1A
102
}
330
1A
100
AcDbXrecord
280
     1
270
     1
271
     1
  0
XRECORD
  5
20
102
{ACAD_REACTORS
330
1A
102
}
330
1A
100
AcDbXrecord
280
     1
270
     1
271
     1
  0
XRECORD
  5
1D
102
{ACAD_REACTORS
330
1A
102
}
330
1A
100
AcDbXrecord
280
     1
270
     1
271
     1
  0
XRECORD
  5
14
102
{ACAD_REACTORS
330
12
102
}
330
12
100
AcDbXrecord
280
     1
270
     1
271
     1
  0
XRECORD
  5
13
102
{ACAD_REACTORS
330
12
102
}
330
12
100
AcDbXrecord
280
     1
270
     1
271
     1
  0
XRECORD
  5
17
102
{ACAD_REACTORS
330
12
102
}
330
12
100
AcDbXrecord
280
     1
270
     1
271
     1
  0
XRECORD
  5
16
102
{ACAD_REACTORS
330
12
102
}
330
12
100
AcDbXrecord
280
     1
270
     1
271
     1
  0
XRECORD
  5
18
102
{ACAD_REACTORS
330
12
102
}
330
12
100
AcDbXrecord
280
     1
270
     1
271
     1
  0
XRECORD
  5
15
102
{ACAD_REACTORS
330
12
102
}
330
12
100
AcDbXrecord
280
     1
270
     1
271
     1
  0
XRECORD
  5
24
102
{ACAD_REACTORS
330
22
102
}
330
22
100
AcDbXrecord
280
     1
270
     1
271
     1
  0
XRECORD
  5
23
102
{ACAD_REACTORS
330
22
102
}
330
22
100
AcDbXrecord
280
     1
270
     1
271
     1
  0
XRECORD
  5
27
102
{ACAD_REACTORS
330
22
102
}
330
22
100
AcDbXrecord
280
     1
270
     1
271
     1
  0
XRECORD
  5
26
102
{ACAD_REACTORS
330
22
102
}
330
22
100
AcDbXrecord
280
     1
270
     1
271
     1
  0
XRECORD
  5
28
102
{ACAD_REACTORS
330
22
102
}
330
22
100
AcDbXrecord
280
     1
270
     1
271
     1
  0
XRECORD
  5
25
102
{ACAD_REACTORS
330
22
102
}
330
22
100
AcDbXrecord
280
     1
270
     1
271
     1
  0
CELLSTYLEMAP
  5
1D1
102
{ACAD_REACTORS
330
1D0
102
}
330
1D0
100
AcDbCellStyleMap
 90
        3
300
CELLSTYLE
  1
TABLEFORMAT_BEGIN
 90
        5
170
     1
 91
        0
 92
    32768
 62
   257
 93
        1
300
CONTENTFORMAT
  1
CONTENTFORMAT_BEGIN
 90
        0
 91
        0
 92
      512
 93
        0
300

 40
0.0
140
1.0
 94
        5
 62
     0
340
55
144
0.25
309
CONTENTFORMAT_END
171
     0
 94
        0
309
TABLEFORMAT_END
  1
CELLSTYLE_BEGIN
 90
        1
 91
        1
300
_TITLE
309
CELLSTYLE_END
300
CELLSTYLE
  1
TABLEFORMAT_BEGIN
 90
        5
170
     1
 91
        0
 92
        0
 62
   257
 93
        1
300
CONTENTFORMAT
  1
CONTENTFORMAT_BEGIN
 90
        0
 91
        0
 92
      512
 93
        0
300

 40
0.0
140
1.0
 94
        5
 62
     0
340
55
144
0.18
309
CONTENTFORMAT_END
171
     0
 94
        0
309
TABLEFORMAT_END
  1
CELLSTYLE_BEGIN
 90
        2
 91
        1
300
_HEADER
309
CELLSTYLE_END
300
CELLSTYLE
  1
TABLEFORMAT_BEGIN
 90
        5
170
     1
 91
        0
 92
        0
 62
   257
 93
        1
300
CONTENTFORMAT
  1
CONTENTFORMAT_BEGIN
 90
        0
 91
        0
 92
      512
 93
        0
300

 40
0.0
140
1.0
 94
        2
 62
     0
340
55
144
0.18
309
CONTENTFORMAT_END
171
     0
 94
        0
309
TABLEFORMAT_END
  1
CELLSTYLE_BEGIN
 90
        3
 91
        2
300
_DATA
309
CELLSTYLE_END
  0
ENDSEC
  0
EOF
